  0
SECTION
  2
HEADER
  9
$ACADVER
  1
AC1015
  9
$ACADMAINTVER
 70
     6
  9
$DWGCODEPAGE
  3
ANSI_1252
  9
$INSBASE
 10
0.0
 20
0.0
 30
0.0
  9
$EXTMIN
 10
-143.9988399407
 20
-243.0414500624
 30
0.0
  9
$EXTMAX
 10
150.2369224884
 20
0.9999999999
 30
0.0
  9
$LIMMIN
 10
0.0
 20
0.0
  9
$LIMMAX
 10
420.0
 20
297.0
  9
$ORTHOMODE
 70
     0
  9
$REGENMODE
 70
     1
  9
$FILLMODE
 70
     1
  9
$QTEXTMODE
 70
     0
  9
$MIRRTEXT
 70
     1
  9
$LTSCALE
 40
1.0
  9
$ATTMODE
 70
     1
  9
$TEXTSIZE
 40
6.35
  9
$TRACEWID
 40
1.0
  9
$TEXTSTYLE
  7
Standard
  9
$CLAYER
  8
0
  9
$CELTYPE
  6
ByLayer
  9
$CECOLOR
 62
   256
  9
$CELTSCALE
 40
1.0
  9
$DISPSILH
 70
     0
  9
$DIMSCALE
 40
1.0
  9
$DIMASZ
 40
5.9944
  9
$DIMEXO
 40
0.9906
  9
$DIMDLI
 40
3.75
  9
$DIMRND
 40
0.0
  9
$DIMDLE
 40
0.0
  9
$DIMEXE
 40
0.9906
  9
$DIMTP
 40
0.0
  9
$DIMTM
 40
0.0
  9
$DIMTXT
 40
6.35
  9
$DIMCEN
 40
2.5
  9
$DIMTSZ
 40
0.0
  9
$DIMTOL
 70
     0
  9
$DIMLIM
 70
     0
  9
$DIMTIH
 70
     1
  9
$DIMTOH
 70
     1
  9
$DIMSE1
 70
     0
  9
$DIMSE2
 70
     0
  9
$DIMTAD
 70
     1
  9
$DIMZIN
 70
     0
  9
$DIMBLK
  1

  9
$DIMASO
 70
     1
  9
$DIMSHO
 70
     1
  9
$DIMPOST
  1

  9
$DIMAPOST
  1

  9
$DIMALT
 70
     0
  9
$DIMALTD
 70
     3
  9
$DIMALTF
 40
0.0393700787
  9
$DIMLFAC
 40
1.0
  9
$DIMTOFL
 70
     1
  9
$DIMTVP
 40
0.0
  9
$DIMTIX
 70
     0
  9
$DIMSOXD
 70
     0
  9
$DIMSAH
 70
     0
  9
$DIMBLK1
  1

  9
$DIMBLK2
  1

  9
$DIMSTYLE
  2
ISO-25
  9
$DIMCLRD
 70
     0
  9
$DIMCLRE
 70
     0
  9
$DIMCLRT
 70
     0
  9
$DIMTFAC
 40
1.0
  9
$DIMGAP
 40
1.524
  9
$DIMJUST
 70
     0
  9
$DIMSD1
 70
     0
  9
$DIMSD2
 70
     0
  9
$DIMTOLJ
 70
     0
  9
$DIMTZIN
 70
     0
  9
$DIMALTZ
 70
     0
  9
$DIMALTTZ
 70
     0
  9
$DIMUPT
 70
     0
  9
$DIMDEC
 70
     1
  9
$DIMTDEC
 70
     2
  9
$DIMALTU
 70
     2
  9
$DIMALTTD
 70
     3
  9
$DIMTXSTY
  7
Standard
  9
$DIMAUNIT
 70
     0
  9
$DIMADEC
 70
     1
  9
$DIMALTRND
 40
0.0
  9
$DIMAZIN
 70
     0
  9
$DIMDSEP
 70
    44
  9
$DIMATFIT
 70
     3
  9
$DIMFRAC
 70
     0
  9
$DIMLDRBLK
  1

  9
$DIMLUNIT
 70
     2
  9
$DIMLWD
 70
    -2
  9
$DIMLWE
 70
    -2
  9
$DIMTMOVE
 70
     0
  9
$LUNITS
 70
     2
  9
$LUPREC
 70
     1
  9
$SKETCHINC
 40
1.0
  9
$FILLETRAD
 40
10.0
  9
$AUNITS
 70
     0
  9
$AUPREC
 70
     1
  9
$MENU
  1
.
  9
$ELEVATION
 40
0.0
  9
$PELEVATION
 40
0.0
  9
$THICKNESS
 40
0.0
  9
$LIMCHECK
 70
     0
  9
$CHAMFERA
 40
0.0
  9
$CHAMFERB
 40
0.0
  9
$CHAMFERC
 40
0.0
  9
$CHAMFERD
 40
0.0
  9
$SKPOLY
 70
     0
  9
$TDCREATE
 40
2458600.420707523
  9
$TDUCREATE
 40
2458600.379040856
  9
$TDUPDATE
 40
2458600.42075838
  9
$TDUUPDATE
 40
2458600.379091713
  9
$TDINDWG
 40
0.0000000116
  9
$TDUSRTIMER
 40
0.0000000116
  9
$USRTIMER
 70
     1
  9
$ANGBASE
 50
0.0
  9
$ANGDIR
 70
     0
  9
$PDMODE
 70
     0
  9
$PDSIZE
 40
-1.0
  9
$PLINEWID
 40
0.0
  9
$SPLFRAME
 70
     0
  9
$SPLINETYPE
 70
     6
  9
$SPLINESEGS
 70
     8
  9
$HANDSEED
  5
C0
  9
$SURFTAB1
 70
     6
  9
$SURFTAB2
 70
     6
  9
$SURFTYPE
 70
     6
  9
$SURFU
 70
     6
  9
$SURFV
 70
     6
  9
$UCSBASE
  2

  9
$UCSNAME
  2

  9
$UCSORG
 10
0.0
 20
0.0
 30
0.0
  9
$UCSXDIR
 10
1.0
 20
0.0
 30
0.0
  9
$UCSYDIR
 10
0.0
 20
1.0
 30
0.0
  9
$UCSORTHOREF
  2

  9
$UCSORTHOVIEW
 70
     0
  9
$UCSORGTOP
 10
0.0
 20
0.0
 30
0.0
  9
$UCSORGBOTTOM
 10
0.0
 20
0.0
 30
0.0
  9
$UCSORGLEFT
 10
0.0
 20
0.0
 30
0.0
  9
$UCSORGRIGHT
 10
0.0
 20
0.0
 30
0.0
  9
$UCSORGFRONT
 10
0.0
 20
0.0
 30
0.0
  9
$UCSORGBACK
 10
0.0
 20
0.0
 30
0.0
  9
$PUCSBASE
  2

  9
$PUCSNAME
  2

  9
$PUCSORG
 10
0.0
 20
0.0
 30
0.0
  9
$PUCSXDIR
 10
1.0
 20
0.0
 30
0.0
  9
$PUCSYDIR
 10
0.0
 20
1.0
 30
0.0
  9
$PUCSORTHOREF
  2

  9
$PUCSORTHOVIEW
 70
     0
  9
$PUCSORGTOP
 10
0.0
 20
0.0
 30
0.0
  9
$PUCSORGBOTTOM
 10
0.0
 20
0.0
 30
0.0
  9
$PUCSORGLEFT
 10
0.0
 20
0.0
 30
0.0
  9
$PUCSORGRIGHT
 10
0.0
 20
0.0
 30
0.0
  9
$PUCSORGFRONT
 10
0.0
 20
0.0
 30
0.0
  9
$PUCSORGBACK
 10
0.0
 20
0.0
 30
0.0
  9
$USERI1
 70
     0
  9
$USERI2
 70
     0
  9
$USERI3
 70
     0
  9
$USERI4
 70
     0
  9
$USERI5
 70
     0
  9
$USERR1
 40
0.0
  9
$USERR2
 40
0.0
  9
$USERR3
 40
0.0
  9
$USERR4
 40
0.0
  9
$USERR5
 40
0.0
  9
$WORLDVIEW
 70
     1
  9
$SHADEDGE
 70
     3
  9
$SHADEDIF
 70
    70
  9
$TILEMODE
 70
     1
  9
$MAXACTVP
 70
    64
  9
$PINSBASE
 10
0.0
 20
0.0
 30
0.0
  9
$PLIMCHECK
 70
     0
  9
$PEXTMIN
 10
1.0000000000E+20
 20
1.0000000000E+20
 30
1.0000000000E+20
  9
$PEXTMAX
 10
-1.0000000000E+20
 20
-1.0000000000E+20
 30
-1.0000000000E+20
  9
$PLIMMIN
 10
0.0
 20
0.0
  9
$PLIMMAX
 10
420.0
 20
297.0
  9
$UNITMODE
 70
     0
  9
$VISRETAIN
 70
     1
  9
$PLINEGEN
 70
     0
  9
$PSLTSCALE
 70
     1
  9
$TREEDEPTH
 70
  3020
  9
$CMLSTYLE
  2
Standard
  9
$CMLJUST
 70
     0
  9
$CMLSCALE
 40
20.0
  9
$PROXYGRAPHICS
 70
     1
  9
$MEASUREMENT
 70
     1
  9
$CELWEIGHT
370
    -1
  9
$ENDCAPS
280
     0
  9
$JOINSTYLE
280
     0
  9
$LWDISPLAY
290
     1
  9
$INSUNITS
 70
     4
  9
$HYPERLINKBASE
  1

  9
$STYLESHEET
  1

  9
$XEDIT
290
     1
  9
$CEPSNTYPE
380
     0
  9
$PSTYLEMODE
290
     1
  9
$FINGERPRINTGUID
  2
{341EF2BB-BB51-4145-9C28-3344D765A088}
  9
$VERSIONGUID
  2
{FAEB1C32-E019-11D5-929B-00C0DF256EC4}
  9
$EXTNAMES
290
     1
  9
$PSVPSCALE
 40
0.0
  9
$OLESTARTUP
290
     0
  0
ENDSEC
  0
SECTION
  2
CLASSES
  0
CLASS
  1
ACDBDICTIONARYWDFLT
  2
AcDbDictionaryWithDefault
  3
ObjectDBX Classes
 90
        0
280
     0
281
     0
  0
CLASS
  1
VISUALSTYLE
  2
AcDbVisualStyle
  3
ObjectDBX Classes
 90
     4095
280
     0
281
     0
  0
CLASS
  1
MATERIAL
  2
AcDbMaterial
  3
ObjectDBX Classes
 90
     1153
280
     0
281
     0
  0
CLASS
  1
SCALE
  2
AcDbScale
  3
ObjectDBX Classes
 90
     1153
280
     0
281
     0
  0
CLASS
  1
TABLESTYLE
  2
AcDbTableStyle
  3
ObjectDBX Classes
 90
     4095
280
     0
281
     0
  0
CLASS
  1
MLEADERSTYLE
  2
AcDbMLeaderStyle
  3
ACDB_MLEADERSTYLE_CLASS
 90
     4095
280
     0
281
     0
  0
CLASS
  1
SUN
  2
AcDbSun
  3
SCENEOE
 90
     1153
280
     0
281
     0
  0
CLASS
  1
ACDBPLACEHOLDER
  2
AcDbPlaceHolder
  3
ObjectDBX Classes
 90
        0
280
     0
281
     0
  0
CLASS
  1
LAYOUT
  2
AcDbLayout
  3
ObjectDBX Classes
 90
        0
280
     0
281
     0
  0
ENDSEC
  0
SECTION
  2
TABLES
  0
TABLE
  2
VPORT
  5
8
330
0
100
AcDbSymbolTable
 70
     1
  0
VPORT
  5
29
330
8
100
AcDbSymbolTableRecord
100
AcDbViewportTableRecord
  2
*Active
 70
     0
 10
0.0
 20
0.0
 11
1.0
 21
1.0
 12
3.1190412739
 22
-121.0207250312
 13
0.0
 23
0.0
 14
10.0
 24
10.0
 15
10.0
 25
10.0
 16
0.0
 26
0.0
 36
1.0
 17
0.0
 27
0.0
 37
0.0
 40
248.9222790636
 41
1.2056794547
 42
50.0
 43
0.0
 44
0.0
 50
0.0
 51
0.0
 71
     0
 72
   100
 73
     1
 74
     3
 75
     0
 76
     0
 77
     0
 78
     0
281
     0
 65
     1
110
0.0
120
0.0
130
0.0
111
1.0
121
0.0
131
0.0
112
0.0
122
1.0
132
0.0
 79
     0
146
0.0
  0
ENDTAB
  0
TABLE
  2
LTYPE
  5
5
330
0
100
AcDbSymbolTable
 70
     6
  0
LTYPE
  5
14
330
5
100
AcDbSymbolTableRecord
100
AcDbLinetypeTableRecord
  2
ByBlock
 70
     0
  3

 72
    65
 73
     0
 40
0.0
  0
LTYPE
  5
15
330
5
100
AcDbSymbolTableRecord
100
AcDbLinetypeTableRecord
  2
ByLayer
 70
     0
  3

 72
    65
 73
     0
 40
0.0
  0
LTYPE
  5
16
330
5
100
AcDbSymbolTableRecord
100
AcDbLinetypeTableRecord
  2
Continuous
 70
     0
  3
Solid line
 72
    65
 73
     0
 40
0.0
  0
LTYPE
  5
6E
330
5
100
AcDbSymbolTableRecord
100
AcDbLinetypeTableRecord
  2
HIDDEN
 70
     0
  3
Hidden __ __ __ __ __ __ __ __ __ __ __ __ __ __
 72
    65
 73
     2
 40
1.905
 49
1.27
 74
     0
 49
-0.635
 74
     0
  0
LTYPE
  5
6F
330
5
100
AcDbSymbolTableRecord
100
AcDbLinetypeTableRecord
  2
PHANTOM
 70
     0
  3
Phantom ______  __  __  ______  __  __  ______
 72
    65
 73
     6
 40
12.7
 49
6.35
 74
     0
 49
-1.27
 74
     0
 49
1.27
 74
     0
 49
-1.27
 74
     0
 49
1.27
 74
     0
 49
-1.27
 74
     0
  0
LTYPE
  5
70
330
5
100
AcDbSymbolTableRecord
100
AcDbLinetypeTableRecord
  2
CENTER
 70
     0
  3
Center ____ _ ____ _ ____ _ ____ _ ____ _ ____
 72
    65
 73
     4
 40
10.16
 49
6.35
 74
     0
 49
-1.27
 74
     0
 49
1.27
 74
     0
 49
-1.27
 74
     0
  0
LTYPE
  5
71
330
5
100
AcDbSymbolTableRecord
100
AcDbLinetypeTableRecord
  2
CENTERX2
 70
     0
  3
Center (2x) ________  __  ________  __  _____
 72
    65
 73
     4
 40
20.32
 49
12.7
 74
     0
 49
-2.54
 74
     0
 49
2.54
 74
     0
 49
-2.54
 74
     0
  0
LTYPE
  5
72
330
5
100
AcDbSymbolTableRecord
100
AcDbLinetypeTableRecord
  2
DOT2
 70
     0
  3
Dot (.5x) ........................................
 72
    65
 73
     2
 40
0.635
 49
0.0
 74
     0
 49
-0.635
 74
     0
  0
ENDTAB
  0
TABLE
  2
LAYER
  5
2
330
0
100
AcDbSymbolTable
 70
     1
  0
LAYER
  5
10
330
2
100
AcDbSymbolTableRecord
100
AcDbLayerTableRecord
  2
0
 70
     0
 62
     7
  6
Continuous
370
    -3
390
F
  0
ENDTAB
  0
TABLE
  2
STYLE
  5
3
330
0
100
AcDbSymbolTable
 70
     1
  0
STYLE
  5
11
330
3
100
AcDbSymbolTableRecord
100
AcDbTextStyleTableRecord
  2
Standard
 70
     0
 40
0.0
 41
1.0
 50
0.0
 71
     0
 42
6.35
  3
txt
  4

  0
ENDTAB
  0
TABLE
  2
VIEW
  5
6
330
0
100
AcDbSymbolTable
 70
     0
  0
ENDTAB
  0
TABLE
  2
UCS
  5
7
330
0
100
AcDbSymbolTable
 70
     0
  0
ENDTAB
  0
TABLE
  2
APPID
  5
9
330
0
100
AcDbSymbolTable
 70
     1
  0
APPID
  5
12
330
9
100
AcDbSymbolTableRecord
100
AcDbRegAppTableRecord
  2
ACAD
 70
     0
  0
ENDTAB
  0
TABLE
  2
DIMSTYLE
  5
A
330
0
100
AcDbSymbolTable
 70
     1
100
AcDbDimStyleTable
  0
DIMSTYLE
105
27
330
A
100
AcDbSymbolTableRecord
100
AcDbDimStyleTableRecord
  2
ISO-25
 70
     0
 41
2.5
 42
0.625
 43
3.75
 44
1.25
 73
     0
 74
     0
 77
     1
 78
     8
140
2.5
141
2.5
143
0.0393700787
147
0.625
171
     3
172
     1
178
     0
271
     2
272
     2
274
     3
278
    44
283
     0
284
     8
340
11
  0
ENDTAB
  0
TABLE
  2
BLOCK_RECORD
  5
1
330
0
100
AcDbSymbolTable
 70
     1
  0
BLOCK_RECORD
  5
1F
330
1
100
AcDbSymbolTableRecord
100
AcDbBlockTableRecord
  2
*Model_Space
340
22
  0
BLOCK_RECORD
  5
1B
330
1
100
AcDbSymbolTableRecord
100
AcDbBlockTableRecord
  2
*Paper_Space
340
1E
  0
BLOCK_RECORD
  5
23
330
1
100
AcDbSymbolTableRecord
100
AcDbBlockTableRecord
  2
*Paper_Space0
340
26
  0
ENDTAB
  0
ENDSEC
  0
SECTION
  2
BLOCKS
  0
BLOCK
  5
20
330
1F
100
AcDbEntity
  8
0
100
AcDbBlockBegin
  2
*Model_Space
 70
     0
 10
0.0
 20
0.0
 30
0.0
  3
*Model_Space
  1

  0
ENDBLK
  5
21
330
1F
100
AcDbEntity
  8
0
100
AcDbBlockEnd
  0
BLOCK
  5
1C
330
1B
100
AcDbEntity
 67
     1
  8
0
100
AcDbBlockBegin
  2
*Paper_Space
 70
     0
 10
0.0
 20
0.0
 30
0.0
  3
*Paper_Space
  1

  0
ENDBLK
  5
1D
330
1B
100
AcDbEntity
 67
     1
  8
0
100
AcDbBlockEnd
  0
BLOCK
  5
24
330
23
100
AcDbEntity
  8
0
100
AcDbBlockBegin
  2
*Paper_Space0
 70
     0
 10
0.0
 20
0.0
 30
0.0
  3
*Paper_Space0
  1

  0
ENDBLK
  5
25
330
23
100
AcDbEntity
  8
0
100
AcDbBlockEnd
  0
ENDSEC
  0
SECTION
  2
ENTITIES
  0
SPLINE
  5
73
330
1F
100
AcDbEntity
  8
0
  6
Continuous
 62
     7
370
    25
100
AcDbSpline
210
0.0
220
0.0
230
1.0
 70
     8
 71
     3
 72
   192
 73
   188
 74
     0
 42
0.000000001
 43
0.00000001
 40
0.0
 40
0.0
 40
0.0
 40
0.0
 40
0.0029492684489262
 40
0.0168355405613154
 40
0.0298446414971123
 40
0.0419040998145442
 40
0.0529664415097062
 40
0.0630118607065697
 40
0.0720459399744418
 40
0.0800951059847181
 40
0.0872007460778104
 40
0.0934134654246394
 40
0.0987876495823383
 40
0.1033775149204213
 40
0.1072345790216781
 40
0.1104547158944333
 40
0.1135229690443839
 40
0.1165623835605777
 40
0.1195820611874132
 40
0.1225927371785059
 40
0.1271181627626059
 40
0.1317033263812198
 40
0.1364190991463998
 40
0.141607976052232
 40
0.1473956916205342
 40
0.153752869169542
 40
0.1606717245748741
 40
0.1681746263666139
 40
0.176137968627804
 40
0.183764242582915
 40
0.1909977367215203
 40
0.197834635755231
 40
0.2021717804878239
 40
0.206396118190123
 40
0.210496291885198
 40
0.2134681389829914
 40
0.2164368929247332
 40
0.2194927836377311
 40
0.2227166161604371
 40
0.2254628454788395
 40
0.2283869683413207
 40
0.2315108564781506
 40
0.2347093261255171
 40
0.2373577705321936
 40
0.2399444443610907
 40
0.2410549000562577
 40
0.2421314116103618
 40
0.2436438500147116
 40
0.2452852023116778
 40
0.247006340998486
 40
0.253388136776463
 40
0.2607152317389547
 40
0.2689325893127578
 40
0.2776772876840242
 40
0.2834244351594531
 40
0.289373293462143
 40
0.2955314206099341
 40
0.3018287792451749
 40
0.3075380513653216
 40
0.3122304276346162
 40
0.3162752558303943
 40
0.3199548738781361
 40
0.3233122653337357
 40
0.3268551634819417
 40
0.3311933022376611
 40
0.337427496341928
 40
0.344031232728692
 40
0.3505874569115964
 40
0.3569637337872636
 40
0.3630515061215258
 40
0.3678731681675283
 40
0.3723080007265435
 40
0.3763746319303012
 40
0.3810062165755615
 40
0.3862123495146985
 40
0.3909912589047322
 40
0.3963574524892907
 40
0.4019895995332539
 40
0.4081381195585029
 40
0.4146285619246815
 40
0.4209109796726403
 40
0.4282230470418674
 40
0.4360568677223549
 40
0.4462602874300036
 40
0.4550216859246781
 40
0.4617121434565033
 40
0.4709993628786969
 40
0.4793084167998051
 40
0.4838422457782242
 40
0.4885387299703742
 40
0.4952552823879198
 40
0.5016833637221492
 40
0.5060023069372973
 40
0.5114841290283139
 40
0.5175646088500899
 40
0.5219689150084689
 40
0.5257887320277433
 40
0.5310147793206307
 40
0.5351807877976237
 40
0.5382865357575278
 40
0.5423410676171486
 40
0.5478849092873832
 40
0.5509633562699465
 40
0.553687332220813
 40
0.5554753152932284
 40
0.5568290562891997
 40
0.5586694173440913
 40
0.5612531876443143
 40
0.5644869069659684
 40
0.5666302866582522
 40
0.5683444677475882
 40
0.569871314142748
 40
0.5712865018584132
 40
0.5732114634092327
 40
0.5758326515647266
 40
0.5784944907598939
 40
0.582115916087655
 40
0.585038187297889
 40
0.5878202752978353
 40
0.5906044887254195
 40
0.5934594935493563
 40
0.5964189720617367
 40
0.5996712521006935
 40
0.6044215578220418
 40
0.60925565736703
 40
0.6133028442698474
 40
0.6182784669116141
 40
0.6240902277069926
 40
0.6293475557838435
 40
0.6339091956525701
 40
0.63767030833804
 40
0.6396874828090814
 40
0.6411788549859214
 40
0.642723540358313
 40
0.6448662249152048
 40
0.6476015232599271
 40
0.6520646731590368
 40
0.6575004089643418
 40
0.6638691587956469
 40
0.6722610793470446
 40
0.67988637259627
 40
0.6867757556451906
 40
0.6929638258103326
 40
0.6984854720482184
 40
0.7033734131877226
 40
0.7084436911936954
 40
0.7129587417263975
 40
0.7176074024636041
 40
0.7224284793467622
 40
0.7274326980068172
 40
0.7362157494608109
 40
0.7454446985162423
 40
0.7549609829689903
 40
0.7647806971161644
 40
0.775040754380735
 40
0.7858789873245473
 40
0.7971561596541419
 40
0.8086961621125407
 40
0.8205862117935218
 40
0.8324811606903892
 40
0.8443165008344578
 40
0.8561079508037684
 40
0.8678903135371137
 40
0.8796010430548878
 40
0.8908288771406507
 40
0.9015276019189012
 40
0.9116798371503843
 40
0.9215621683741028
 40
0.9249038038462916
 40
0.92825599489035
 40
0.9316185038095259
 40
0.9344931461148742
 40
0.9363946565954052
 40
0.9372023134275221
 40
0.938101511795086
 40
0.9396043975737245
 40
0.9417167378196393
 40
0.9444465491300169
 40
0.9483111120548143
 40
0.9530041959492965
 40
0.9585465781659028
 40
0.9649610434776233
 40
0.9722711884672018
 40
0.9804994159097955
 40
0.9896647519826409
 40
0.9997803699027543
 40
1.0
 40
1.0
 40
1.0
 40
1.0
 10
-70.8708624647354
 20
-56.78670519789594
 30
0.0
 10
-71.48605272333505
 20
-57.03513968302401
 30
0.0
 10
-74.99779155991041
 20
-58.45329775294336
 30
0.0
 10
-81.01201160784666
 20
-61.4479607316651
 30
0.0
 10
-88.70534158441582
 20
-65.61626003336126
 30
0.0
 10
-95.61094427421779
 20
-69.86574320026257
 30
0.0
 10
-101.7537648884576
 20
-74.04147066316932
 30
0.0
 10
-107.1507366477736
 20
-78.06952127182808
 30
0.0
 10
-111.8409276746341
 20
-81.87962036230088
 30
0.0
 10
-115.8722005503094
 20
-85.42336643719638
 30
0.0
 10
-119.2996704022334
 20
-88.66654879544248
 30
0.0
 10
-122.1813023740816
 20
-91.58623382534566
 30
0.0
 10
-124.5754036686359
 20
-94.17015875025146
 30
0.0
 10
-126.5338131497128
 20
-96.40873352190553
 30
0.0
 10
-128.1191224854074
 20
-98.31653679907201
 30
0.0
 10
-129.4162522497878
 20
-99.94730562542259
 30
0.0
 10
-130.6107712009326
 20
-101.5124224379572
 30
0.0
 10
-131.7748063841764
 20
-103.106692195255
 30
0.0
 10
-132.9165271012228
 20
-104.7474521783087
 30
0.0
 10
-134.2154816801295
 20
-106.7152630848975
 30
0.0
 10
-135.6443953176247
 20
-109.0443968909946
 30
0.0
 10
-137.1496063012751
 20
-111.7671614752855
 30
0.0
 10
-138.5320604395915
 20
-114.6073677314597
 30
0.0
 10
-139.8741125657547
 20
-117.7858000089593
 30
0.0
 10
-141.1595543474486
 20
-121.4294886795695
 30
0.0
 10
-142.2993646629747
 20
-125.5451279018505
 30
0.0
 10
-143.2103646323968
 20
-130.1258029725075
 30
0.0
 10
-143.8236412082388
 20
-135.1260888132129
 30
0.0
 10
-144.1090382165175
 20
-140.3170827809107
 30
0.0
 10
-144.1046692697808
 20
-145.4490803492093
 30
0.0
 10
-143.9188203118634
 20
-150.3132518339592
 30
0.0
 10
-143.6486017388555
 20
-154.4213552953167
 30
0.0
 10
-143.3511154667694
 20
-157.8379201735801
 30
0.0
 10
-143.0625485059757
 20
-160.6355401411483
 30
0.0
 10
-142.7563842228697
 20
-163.1089867415421
 30
0.0
 10
-142.4765593329969
 20
-165.3664761979826
 30
0.0
 10
-142.2261740637045
 20
-167.3476830443384
 30
0.0
 10
-141.9740806402747
 20
-169.2774858502175
 30
0.0
 10
-141.7353263507254
 20
-171.0096591468057
 30
0.0
 10
-141.5051389803615
 20
-172.5651288320445
 30
0.0
 10
-141.2797327915717
 20
-173.966761750915
 30
0.0
 10
-141.0387395420458
 20
-175.3085102947626
 30
0.0
 10
-140.8044600588531
 20
-176.4662219537882
 30
0.0
 10
-140.4851306967855
 20
-177.7745169458958
 30
0.0
 10
-140.1438656360181
 20
-178.9897946147883
 30
0.0
 10
-139.8312177425871
 20
-180.0151917559954
 30
0.0
 10
-139.5774384971961
 20
-180.8160861088733
 30
0.0
 10
-139.3083080758076
 20
-181.6343643855158
 30
0.0
 10
-139.0158611639618
 20
-182.4933166016213
 30
0.0
 10
-138.4131488265041
 20
-184.2020401129529
 30
0.0
 10
-137.4355715140819
 20
-186.7519101519287
 30
0.0
 10
-135.9604750136265
 20
-190.1534133618882
 30
0.0
 10
-134.2279210096046
 20
-193.6943288701882
 30
0.0
 10
-132.3400407105821
 20
-197.1294641654076
 30
0.0
 10
-130.442893478083
 20
-200.2506127870738
 30
0.0
 10
-128.6406628660104
 20
-202.9931093566858
 30
0.0
 10
-126.6288121569979
 20
-205.8191693899708
 30
0.0
 10
-124.4796039720488
 20
-208.599953085335
 30
0.0
 10
-122.3895269409561
 20
-211.099359885407
 30
0.0
 10
-120.4983691644454
 20
-213.2137530554776
 30
0.0
 10
-118.8212882668177
 20
-214.9871294324963
 30
0.0
 10
-117.2684264051481
 20
-216.5501703535159
 30
0.0
 10
-115.7386808856207
 20
-218.0217500729489
 30
0.0
 10
-114.0603300410285
 20
-219.5656245916576
 30
0.0
 10
-111.8763125179887
 20
-221.4730424960518
 30
0.0
 10
-109.1033213254711
 20
-223.7291524859343
 30
0.0
 10
-105.8134555648443
 20
-226.1773671253125
 30
0.0
 10
-102.3340420181918
 20
-228.5286849512341
 30
0.0
 10
-98.81276123171504
 20
-230.6800574598978
 30
0.0
 10
-95.50955255857285
 20
-232.4993047994641
 30
0.0
 10
-92.49957858206744
 20
-234.0029122835194
 30
0.0
 10
-89.83211422759803
 20
-235.2222951924078
 30
0.0
 10
-87.15930198132071
 20
-236.3423636859577
 30
0.0
 10
-84.28022238541033
 20
-237.4391214875903
 30
0.0
 10
-81.19766121114965
 20
-238.4835219641648
 30
0.0
 10
-77.92109473920782
 20
-239.4573911265789
 30
0.0
 10
-74.51838164573614
 20
-240.3310609802337
 30
0.0
 10
-70.76550063552727
 20
-241.1365238629428
 30
0.0
 10
-66.73563197920802
 20
-241.8280735962788
 30
0.0
 10
-62.53383946220532
 20
-242.3687073260047
 30
0.0
 10
-58.04861599744152
 20
-242.7683466095175
 30
0.0
 10
-53.24842526622052
 20
-243.0113442613909
 30
0.0
 10
-47.57748797527578
 20
-243.0840873304177
 30
0.0
 10
-41.55267080268771
 20
-242.9310842185543
 30
0.0
 10
-35.80970069111462
 20
-242.6032724287097
 30
0.0
 10
-30.27756043737313
 20
-242.1762626538684
 30
0.0
 10
-24.83920597642322
 20
-241.6650682828009
 30
0.0
 10
-19.89559680720396
 20
-241.1363131170815
 30
0.0
 10
-15.97537843500995
 20
-240.6923849052283
 30
0.0
 10
-12.41423868147135
 20
-240.2769114256946
 30
0.0
 10
-8.429099819724648
 20
-239.7999747602705
 30
0.0
 10
-4.534742125696764
 20
-239.3288558509307
 30
0.0
 10
-0.9129891608650039
 20
-238.8894249413945
 30
0.0
 10
2.618784293896909
 20
-238.4597785472565
 30
0.0
 10
6.17607411264633
 20
-238.0258495027316
 30
0.0
 10
9.372182463118705
 20
-237.6355018086813
 30
0.0
 10
12.36717374515556
 20
-237.269264881224
 30
0.0
 10
15.30944082440452
 20
-236.9090010489009
 30
0.0
 10
18.0726013053305
 20
-236.5699660680619
 30
0.0
 10
20.58882875293218
 20
-236.26045394574
 30
0.0
 10
23.40733256647235
 20
-235.9127101723565
 30
0.0
 10
26.21534255812573
 20
-235.5644112631558
 30
0.0
 10
28.72976999759137
 20
-235.2503625790543
 30
0.0
 10
30.41487387222455
 20
-235.0386785382379
 30
0.0
 10
31.70659330587025
 20
-234.8756417727416
 30
0.0
 10
32.79726262948153
 20
-234.7374702348767
 30
0.0
 10
34.06754635009217
 20
-234.5758663150963
 30
0.0
 10
35.75683259234656
 20
-234.3596311512586
 30
0.0
 10
37.51142665089095
 20
-234.1330066187423
 30
0.0
 10
39.0698283710863
 20
-233.9298347482075
 30
0.0
 10
40.25457140929954
 20
-233.7742605423373
 30
0.0
 10
41.27810683354281
 20
-233.6389926811298
 30
0.0
 10
42.34853055582248
 20
-233.4966660454877
 30
0.0
 10
43.66234181454612
 20
-233.3207130133742
 30
0.0
 10
45.24767587065391
 20
-233.1061833212269
 30
0.0
 10
47.19989713723179
 20
-232.838568523829
 30
0.0
 10
49.21551348454774
 20
-232.5576900221486
 30
0.0
 10
51.25921126890498
 20
-232.2675268196918
 30
0.0
 10
53.11848800479884
 20
-231.9989221203456
 30
0.0
 10
54.9590432909984
 20
-231.7282165757934
 30
0.0
 10
56.86012660050029
 20
-231.4432202818664
 30
0.0
 10
58.87721798294325
 20
-231.1337564641996
 30
0.0
 10
61.30635965798896
 20
-230.7518851043801
 30
0.0
 10
64.06667998600905
 20
-230.3055847747531
 30
0.0
 10
66.91084285145492
 20
-229.827068068459
 30
0.0
 10
69.93702287928244
 20
-229.2966581711645
 30
0.0
 10
73.1629122507063
 20
-228.7060985774287
 30
0.0
 10
76.64270077529426
 20
-228.0332593425333
 30
0.0
 10
80.01387021553313
 20
-227.3411567195162
 30
0.0
 10
82.93473393237957
 20
-226.7069094987363
 30
0.0
 10
85.15717186885138
 20
-226.1996300490185
 30
0.0
 10
86.71461217861159
 20
-225.8311036954841
 30
0.0
 10
87.79601286473483
 20
-225.5694889427894
 30
0.0
 10
88.91233509509004
 20
-225.294100717858
 30
0.0
 10
90.299420294381
 20
-224.9435005871175
 30
0.0
 10
92.31437175133303
 20
-224.4171649103055
 30
0.0
 10
95.03066767595566
 20
-223.6715139819277
 30
0.0
 10
98.50555328671513
 20
-222.6475030692538
 30
0.0
 10
102.7771443922926
 20
-221.2721316543455
 30
0.0
 10
107.4393510411194
 20
-219.5860581357636
 30
0.0
 10
112.1083185240501
 20
-217.6503286675295
 30
0.0
 10
116.2248220778852
 20
-215.7021926445162
 30
0.0
 10
119.8224529150074
 20
-213.7697521110987
 30
0.0
 10
122.9394378807386
 20
-211.8829177374186
 30
0.0
 10
125.7587202624967
 20
-209.975092822317
 30
0.0
 10
128.3102030311207
 20
-208.0463646056364
 30
0.0
 10
130.7303680466343
 20
-206.0005752198642
 30
0.0
 10
132.9942946471641
 20
-203.8629245163904
 30
0.0
 10
135.2061543768975
 20
-201.5130709270359
 30
0.0
 10
137.8571952109873
 20
-198.3174372565956
 30
0.0
 10
140.7811018844265
 20
-194.0786801316645
 30
0.0
 10
143.6898174107242
 20
-188.6415623703277
 30
0.0
 10
146.0857137133329
 20
-182.6981365612252
 30
0.0
 10
147.9479588857166
 20
-176.3158478436004
 30
0.0
 10
149.2844850821306
 20
-169.4970655450859
 30
0.0
 10
150.0852093131433
 20
-162.2692507672508
 30
0.0
 10
150.3310647605354
 20
-154.7152311383696
 30
0.0
 10
150.0065439902552
 20
-146.9296340404714
 30
0.0
 10
149.0862329842659
 20
-139.0512514319488
 30
0.0
 10
147.5339363399782
 20
-131.210974342672
 30
0.0
 10
145.3488583683493
 20
-123.5514918713044
 30
0.0
 10
142.5294808967969
 20
-116.1346455674077
 30
0.0
 10
139.087898216921
 20
-109.0209962052318
 30
0.0
 10
135.103933839178
 20
-102.3461474987768
 30
0.0
 10
130.7157944968384
 20
-96.22710546611863
 30
0.0
 10
126.091628550025
 20
-90.73294967299286
 30
0.0
 10
121.3030081996544
 20
-85.79250639881585
 30
0.0
 10
117.426867993704
 20
-82.27256381582743
 30
0.0
 10
114.581755837396
 20
-79.88735682469297
 30
0.0
 10
112.8271108529014
 20
-78.47401185027672
 30
0.0
 10
111.1279033752924
 20
-77.15838660870723
 30
0.0
 10
109.6660381776487
 20
-76.06682537542873
 30
0.0
 10
108.6529485802744
 20
-75.33087735428892
 30
0.0
 10
107.9946040819332
 20
-74.85998359505275
 30
0.0
 10
107.4062106835935
 20
-74.44320997470274
 30
0.0
 10
106.5747369892624
 20
-73.8622808053395
 30
0.0
 10
105.3980258893161
 20
-73.0568717810814
 30
0.0
 10
103.7691789061759
 20
-71.97213046193134
 30
0.0
 10
101.6335423894501
 20
-70.60168606238673
 30
0.0
 10
98.92923717990483
 20
-68.94697444029799
 30
0.0
 10
95.68785197971056
 20
-67.07244701243182
 30
0.0
 10
91.87743210809731
 20
-65.0079963708356
 30
0.0
 10
87.46464800422844
 20
-62.79091819297354
 30
0.0
 10
82.42083165203387
 20
-60.45455377242348
 30
0.0
 10
76.7075513469736
 20
-58.07658546651467
 30
0.0
 10
72.62270968797317
 20
-56.46731699429966
 30
0.0
 10
70.41856169843874
 20
-55.72767931705008
 30
0.0
 10
70.37172225767522
 20
-55.71196158151939
 30
0.0
  0
SPLINE
  5
74
330
1F
100
AcDbEntity
  8
0
  6
Continuous
 62
     7
370
    25
100
AcDbSpline
210
0.0
220
0.0
230
1.0
 70
     8
 71
     3
 72
     9
 73
     5
 74
     0
 42
0.000000001
 43
0.00000001
 40
0.0
 40
0.0
 40
0.0
 40
0.0
 40
0.4933293628820667
 40
1.0
 40
1.0
 40
1.0
 40
1.0
 10
69.73970378985881
 20
-55.62782862120022
 30
0.0
 10
69.22707892946369
 20
-55.40365293770477
 30
0.0
 10
68.1879661197166
 20
-54.94923911123841
 30
0.0
 10
66.69757490223301
 20
-54.3074176945138
 30
0.0
 10
65.94243743451565
 20
-53.98222562838603
 30
0.0
  0
SPLINE
  5
75
330
1F
100
AcDbEntity
  8
0
  6
Continuous
 62
     7
370
    25
100
AcDbSpline
210
0.0
220
0.0
230
1.0
 70
     8
 71
     3
 72
     9
 73
     5
 74
     0
 42
0.000000001
 43
0.00000001
 40
0.0
 40
0.0
 40
0.0
 40
0.0
 40
0.5000116673369787
 40
1.0
 40
1.0
 40
1.0
 40
1.0
 10
-65.00076983052828
 20
-54.24055864806762
 30
0.0
 10
-66.16027304565584
 20
-54.918162817603
 30
0.0
 10
-68.47922536391474
 20
-56.27333953406695
 30
0.0
 10
-70.93944876508142
 20
-57.31996408595646
 30
0.0
 10
-72.16953176140927
 20
-57.84326415057988
 30
0.0
  0
SPLINE
  5
87
330
1F
100
AcDbEntity
  8
0
  6
Continuous
 62
     7
370
    25
100
AcDbSpline
210
0.0
220
0.0
230
1.0
 70
     8
 71
     3
 72
     9
 73
     5
 74
     0
 42
0.000000001
 43
0.00000001
 40
0.0
 40
0.0
 40
0.0
 40
0.0
 40
0.9645043277108916
 40
1.0
 40
1.0
 40
1.0
 40
1.0
 10
70.36978590001556
 20
-55.71772807896649
 30
0.0
 10
70.28100735885855
 20
-55.67933096615317
 30
0.0
 10
70.18896159130072
 20
-55.63952076343025
 30
0.0
 10
69.74604313755539
 20
-55.62940617611831
 30
0.0
 10
69.73032144927045
 20
-55.62904715204176
 30
0.0
  0
SPLINE
  5
88
330
1F
100
AcDbEntity
  8
0
  6
Continuous
 62
     7
370
    25
100
AcDbSpline
210
0.0
220
0.0
230
1.0
 70
     8
 71
     3
 72
    10
 73
     6
 74
     0
 42
0.000000001
 43
0.00000001
 40
0.0
 40
0.0
 40
0.0
 40
0.0
 40
0.0042614699677263
 40
0.5510567606116858
 40
1.0
 40
1.0
 40
1.0
 40
1.0
 10
-72.16657643307674
 20
-57.84330252508907
 30
0.0
 10
-72.16764108006487
 20
-57.84179640275022
 30
0.0
 10
-72.30531210084212
 20
-57.64703757459377
 30
0.0
 10
-71.96931550995099
 20
-57.29182649495804
 30
0.0
 10
-71.2186909139678
 20
-56.92782884415626
 30
0.0
 10
-70.88026086680038
 20
-56.76371519428533
 30
0.0
  0
SPLINE
  5
89
330
1F
100
AcDbEntity
  8
0
  6
Continuous
 62
     7
370
    25
100
AcDbSpline
210
0.0
220
0.0
230
1.0
 70
     8
 71
     3
 72
    10
 73
     6
 74
     0
 42
0.000000001
 43
0.00000001
 40
0.0
 40
0.0
 40
0.0
 40
0.0
 40
0.1386282555491964
 40
0.787226816409394
 40
1.0
 40
1.0
 40
1.0
 40
1.0
 10
-64.45314075699515
 20
-53.45486359253629
 30
0.0
 10
-64.53574363262352
 20
-53.49406776795582
 30
0.0
 10
-65.00481971346694
 20
-53.71669610648033
 30
0.0
 10
-65.16108615662382
 20
-53.9718706142184
 30
0.0
 10
-64.97067176347483
 20
-54.18586967752317
 30
0.0
 10
-64.92363623335349
 20
-54.23873101442921
 30
0.0
  0
CIRCLE
  5
91
330
1F
100
AcDbEntity
  8
0
  6
Continuous
 62
     7
370
    25
100
AcDbCircle
 10
0.0
 20
-5.0
 30
0.0
 40
1.610000000027862
  0
CIRCLE
  5
98
330
1F
100
AcDbEntity
  8
0
  6
Continuous
 62
     7
370
    25
100
AcDbCircle
 10
0.0
 20
-5.0000000001
 30
0.0
 40
1.999999999999997
  0
SPLINE
  5
9A
330
1F
100
AcDbEntity
  8
0
  6
Continuous
 62
     8
370
    25
100
AcDbSpline
210
0.0
220
0.0
230
1.0
 70
     8
 71
     3
 72
    41
 73
    37
 74
     0
 42
0.000000001
 43
0.00000001
 40
0.0
 40
0.0
 40
0.0
 40
0.0
 40
0.0332606256603251
 40
0.0676537263409401
 40
0.1021444363401307
 40
0.1363090855602889
 40
0.1703517375724874
 40
0.2045893391205112
 40
0.2389431793162002
 40
0.2731691829275928
 40
0.307560917510333
 40
0.342239635728175
 40
0.3767216500171042
 40
0.4112436465003639
 40
0.4460247821415368
 40
0.4691042203419775
 40
0.492153963753236
 40
0.515383146119969
 40
0.5388145049397912
 40
0.5621478387129094
 40
0.5854582648973444
 40
0.6088976695480703
 40
0.6325135253358889
 40
0.6559723323867307
 40
0.6793188923201932
 40
0.7026821278389679
 40
0.7262277452708105
 40
0.7497028954557218
 40
0.7728312923105072
 40
0.7957469816931042
 40
0.8299554283513145
 40
0.8642309506199225
 40
0.8981319874124769
 40
0.9319197721041774
 40
0.9660496971758522
 40
0.9999999999999999
 40
0.9999999999999999
 40
0.9999999999999999
 40
0.9999999999999999
 10
69.73032144927045
 20
-55.62904715204176
 30
0.0
 10
69.34525567921398
 20
-55.6142033807164
 30
0.0
 10
68.56201322019616
 20
-55.58401042964661
 30
0.0
 10
66.50922694642159
 20
-55.6237115435583
 30
0.0
 10
63.832777973237
 20
-55.73731228650811
 30
0.0
 10
60.52380804262119
 20
-55.93520827313961
 30
0.0
 10
56.63606535727943
 20
-56.2163229388111
 30
0.0
 10
52.18013610506075
 20
-56.57935921102034
 30
0.0
 10
47.18777477450903
 20
-57.01723228597941
 30
0.0
 10
41.6958032531977
 20
-57.5183620779661
 30
0.0
 10
35.73397113749251
 20
-58.0694502739717
 30
0.0
 10
29.34699967738087
 20
-58.65460527230897
 30
0.0
 10
22.59398950229265
 20
-59.25694060896365
 30
0.0
 10
15.53662564747643
 20
-59.86080148789149
 30
0.0
 10
9.045795225454293
 20
-60.38573366925374
 30
0.0
 10
3.259825031074516
 20
-60.8265313461886
 30
0.0
 10
-1.7488105046544
 20
-61.18599877463991
 30
0.0
 10
-6.807034025324624
 20
-61.5208119427172
 30
0.0
 10
-11.88374879349158
 20
-61.82088434161291
 30
0.0
 10
-16.93497548214824
 20
-62.07803241415718
 30
0.0
 10
-21.92529848522726
 20
-62.28518567800097
 30
0.0
 10
-26.84184629332402
 20
-62.43641515450949
 30
0.0
 10
-31.64124329737517
 20
-62.5251898992108
 30
0.0
 10
-36.27378827752332
 20
-62.54704900273858
 30
0.0
 10
-40.69866851653414
 20
-62.50023752849916
 30
0.0
 10
-44.90964937747176
 20
-62.38492725875727
 30
0.0
 10
-48.87968784276288
 20
-62.20287089181024
 30
0.0
 10
-52.56575142979763
 20
-61.96009379558436
 30
0.0
 10
-55.93379076359998
 20
-61.66684806205256
 30
0.0
 10
-59.48118924978324
 20
-61.27869880949957
 30
0.0
 10
-63.0257281232596
 20
-60.78287068465434
 30
0.0
 10
-66.30281393894303
 20
-60.18886174642378
 30
0.0
 10
-68.87579009238351
 20
-59.58779880021358
 30
0.0
 10
-70.72827770827239
 20
-58.99572034837033
 30
0.0
 10
-71.92003414779015
 20
-58.41743828127152
 30
0.0
 10
-72.08454034853054
 20
-58.03434419317627
 30
0.0
 10
-72.16657643307674
 20
-57.84330252508907
 30
0.0
  0
LWPOLYLINE
  5
9B
330
1F
100
AcDbEntity
  8
0
  6
Continuous
 62
     8
370
    25
100
AcDbPolyline
 90
       35
 70
   128
 43
0.0
 10
-64.9236362334
 20
-54.2387310144
 10
-64.6695413295
 20
-54.5717375189
 10
-63.6185902103
 20
-55.0628298988
 10
-61.9033435744
 20
-55.5787237191
 10
-59.5962863601
 20
-56.1101499338
 10
-56.676618613
 20
-56.6485459572
 10
-53.1746205648
 20
-57.1612343993
 10
-49.0739584365
 20
-57.613281634
 10
-44.3611867987
 20
-57.9696386204
 10
-40.9126081312
 20
-58.1368601124
 10
-37.2825164515
 20
-58.2404870097
 10
-33.4148711343
 20
-58.2797457224
 10
-29.3462494951
 20
-58.2536828237
 10
-25.1833770142
 20
-58.1667108033
 10
-20.8420605115
 20
-58.0191990478
 10
-16.392934125
 20
-57.8171867442
 10
-11.9633228844
 20
-57.572503799
 10
-7.4518537844
 20
-57.2831217526
 10
-0.7073881284
 20
-56.789652283
 10
5.9271892655
 20
-56.2487284118
 10
12.4485029535
 20
-55.6746696094
 10
18.7014466348
 20
-55.0874967775
 10
24.6961203071
 20
-54.4935031582
 10
30.3425107186
 20
-53.911229919
 10
35.6007940334
 20
-53.3582782132
 10
40.4300063679
 20
-52.8520217533
 10
44.854786282
 20
-52.4051693325
 10
48.7921686785
 20
-52.0357811481
 10
52.2568189669
 20
-51.7503714459
 10
55.1720078798
 20
-51.5540180233
 10
57.5891782223
 20
-51.4410179698
 10
59.4022067387
 20
-51.4069731352
 10
60.6268133073
 20
-51.4418079888
 10
61.2057375829
 20
-51.5322990852
 10
61.2057375829
 20
-51.5322990852
  0
SPLINE
  5
9C
330
1F
100
AcDbEntity
  8
0
  6
Continuous
 62
     8
370
    25
100
AcDbSpline
210
0.0
220
0.0
230
1.0
 70
     8
 71
     3
 72
    10
 73
     6
 74
     0
 42
0.000000001
 43
0.00000001
 40
0.0
 40
0.0
 40
0.0
 40
0.0
 40
0.4362295040881413
 40
0.957573276855391
 40
1.0
 40
1.0
 40
1.0
 40
1.0
 10
61.20573758294837
 20
-51.53229908521426
 30
0.0
 10
61.87724512879944
 20
-51.90684711015172
 30
0.0
 10
63.35128041317997
 20
-52.72902253895217
 30
0.0
 10
64.91666656227709
 20
-53.54845078255163
 30
0.0
 10
65.83493043434022
 20
-53.92918728676006
 30
0.0
 10
65.90403466621511
 20
-53.95783973021398
 30
0.0
  0
LINE
  5
A1
330
1F
100
AcDbEntity
  8
0
  6
Continuous
 62
     7
370
    25
100
AcDbLine
 10
65.9500770382
 20
-53.9856416346
 30
0.0
 11
61.2197996278
 21
-51.539197188
 31
0.0
  0
LINE
  5
A2
330
1F
100
AcDbEntity
  8
0
  6
Continuous
 62
     7
370
    25
100
AcDbLine
 10
57.0830039562
 20
-47.1799633916
 30
0.0
 11
57.0830039562
 21
-45.0000000001
 31
0.0
  0
LINE
  5
A3
330
1F
100
AcDbEntity
  8
0
  6
Continuous
 62
     7
370
    25
100
AcDbLine
 10
-57.0830039562
 20
-45.0000000001
 30
0.0
 11
-57.0830039562
 21
-47.1799633916
 31
0.0
  0
LINE
  5
A4
330
1F
100
AcDbEntity
  8
0
  6
Continuous
 62
     7
370
    25
100
AcDbLine
 10
-57.0830039562
 20
-47.1799633916
 30
0.0
 11
-56.4082648626
 21
-48.6269460473
 31
0.0
  0
LINE
  5
A5
330
1F
100
AcDbEntity
  8
0
  6
Continuous
 62
     7
370
    25
100
AcDbLine
 10
56.4082648626
 20
-48.6269460473
 30
0.0
 11
57.0830039562
 21
-47.1799633916
 31
0.0
  0
LINE
  5
A6
330
1F
100
AcDbEntity
  8
0
  6
Continuous
 62
     7
370
    25
100
AcDbLine
 10
-56.1363725265
 20
-48.8001605688
 30
0.0
 11
56.1363725265
 21
-48.8001605688
 31
0.0
  0
LINE
  5
A7
330
1F
100
AcDbEntity
  8
0
  6
Continuous
 62
     7
370
    25
100
AcDbLine
 10
61.0
 20
-3.0000000001
 30
0.0
 11
61.0
 21
0.9999999999
 31
0.0
  0
LINE
  5
A8
330
1F
100
AcDbEntity
  8
0
  6
Continuous
 62
     7
370
    25
100
AcDbLine
 10
-61.0
 20
0.9999999999
 30
0.0
 11
-61.0
 21
-3.0000000001
 31
0.0
  0
LINE
  5
A9
330
1F
100
AcDbEntity
  8
0
  6
Continuous
 62
     7
370
    25
100
AcDbLine
 10
-58.0
 20
-45.0000000001
 30
0.0
 11
58.0
 21
-45.0000000001
 31
0.0
  0
LINE
  5
AA
330
1F
100
AcDbEntity
  8
0
  6
Continuous
 62
     7
370
    25
100
AcDbLine
 10
60.0
 20
-43.0000000001
 30
0.0
 11
60.0
 21
-3.0000000001
 31
0.0
  0
LINE
  5
AB
330
1F
100
AcDbEntity
  8
0
  6
Continuous
 62
     7
370
    25
100
AcDbLine
 10
-60.0
 20
-3.0000000001
 30
0.0
 11
-60.0
 21
-43.0000000001
 31
0.0
  0
LINE
  5
AC
330
1F
100
AcDbEntity
  8
0
  6
Continuous
 62
     7
370
    25
100
AcDbLine
 10
65.9040346662
 20
-53.9578397302
 30
0.0
 11
66.0089330044
 21
-54.0016088796
 31
0.0
  0
LINE
  5
AD
330
1F
100
AcDbEntity
  8
0
  6
Continuous
 62
     7
370
    25
100
AcDbLine
 10
61.2057375829
 20
-51.5322990852
 30
0.0
 11
61.2271405075
 21
-51.5434057371
 31
0.0
  0
LINE
  5
AE
330
1F
100
AcDbEntity
  8
0
  6
Continuous
 62
     7
370
    25
100
AcDbLine
 10
-57.0830039562
 20
-47.1799633916
 30
0.0
 11
57.0830039562
 21
-47.1799633916
 31
0.0
  0
LINE
  5
AF
330
1F
100
AcDbEntity
  8
0
  6
Continuous
 62
     7
370
    25
100
AcDbLine
 10
61.0
 20
-3.0000000001
 30
0.0
 11
-61.0
 21
-3.0000000001
 31
0.0
  0
LINE
  5
B0
330
1F
100
AcDbEntity
  8
0
  6
Continuous
 62
     7
370
    25
100
AcDbLine
 10
61.0
 20
0.9999999999
 30
0.0
 11
-61.0
 21
0.9999999999
 31
0.0
  0
LINE
  5
B1
330
1F
100
AcDbEntity
  8
0
  6
Continuous
 62
     7
370
    25
100
AcDbLine
 10
1.0
 20
-5.5773502692
 30
0.0
 11
1.0
 21
-4.4226497309
 31
0.0
  0
LINE
  5
B2
330
1F
100
AcDbEntity
  8
0
  6
Continuous
 62
     7
370
    25
100
AcDbLine
 10
0.0
 20
-6.1547005384
 30
0.0
 11
-1.0
 21
-5.5773502692
 31
0.0
  0
LINE
  5
B3
330
1F
100
AcDbEntity
  8
0
  6
Continuous
 62
     7
370
    25
100
AcDbLine
 10
0.0
 20
-3.8452994617
 30
0.0
 11
-1.0
 21
-4.4226497309
 31
0.0
  0
LINE
  5
B4
330
1F
100
AcDbEntity
  8
0
  6
Continuous
 62
     7
370
    25
100
AcDbLine
 10
0.0
 20
-3.8452994617
 30
0.0
 11
1.0
 21
-4.4226497309
 31
0.0
  0
LINE
  5
B5
330
1F
100
AcDbEntity
  8
0
  6
Continuous
 62
     7
370
    25
100
AcDbLine
 10
-1.0
 20
-5.5773502692
 30
0.0
 11
-1.0
 21
-4.4226497309
 31
0.0
  0
LINE
  5
B6
330
1F
100
AcDbEntity
  8
0
  6
Continuous
 62
     7
370
    25
100
AcDbLine
 10
0.0
 20
-6.1547005384
 30
0.0
 11
1.0
 21
-5.5773502692
 31
0.0
  0
LINE
  5
B7
330
1F
100
AcDbEntity
  8
0
  6
Continuous
 62
     7
370
    25
100
AcDbLine
 10
25.3440635794
 20
-53.3046577446
 30
0.0
 11
25.3048985928
 21
-55.5436381675
 31
0.0
  0
LINE
  5
B8
330
1F
100
AcDbEntity
  8
0
  6
Continuous
 62
     8
370
    25
100
AcDbLine
 10
-56.4082648626
 20
-48.6269460473
 30
0.0
 11
56.4082648626
 21
-48.6269460473
 31
0.0
  0
LINE
  5
B9
330
1F
100
AcDbEntity
  8
0
  6
Continuous
 62
     8
370
    25
100
AcDbLine
 10
-60.0
 20
-43.0000000001
 30
0.0
 11
60.0
 21
-43.0000000001
 31
0.0
  0
ARC
  5
BA
330
1F
100
AcDbEntity
  8
0
  6
Continuous
 62
     7
370
    25
100
AcDbCircle
 10
0.0000000001
 20
-160.5214428753
 30
0.0
 40
125.0000000000437
100
AcDbArc
 50
116.6203535894
 51
121.0475814868
  0
ARC
  5
BB
330
1F
100
AcDbEntity
  8
0
  6
Continuous
 62
     7
370
    25
100
AcDbCircle
 10
0.0000000001
 20
-160.5214428753
 30
0.0
 40
125.0000000000115
100
AcDbArc
 50
60.6743935543
 51
63.3796464106
  0
ARC
  5
BC
330
1F
100
AcDbEntity
  8
0
  6
Continuous
 62
     7
370
    25
100
AcDbCircle
 10
56.1363725265
 20
-48.5001605689
 30
0.0
 40
0.2999999999868246
100
AcDbArc
 50
269.9999999993
 51
335.0000000058
  0
ARC
  5
BD
330
1F
100
AcDbEntity
  8
0
  6
Continuous
 62
     7
370
    25
100
AcDbCircle
 10
-56.1363725265
 20
-48.5001605688
 30
0.0
 40
0.3000000000046938
100
AcDbArc
 50
204.9999999963
 51
269.9999999985
  0
ARC
  5
BE
330
1F
100
AcDbEntity
  8
0
  6
Continuous
 62
     7
370
    25
100
AcDbCircle
 10
58.0
 20
-43.0000000001
 30
0.0
 40
2.0
100
AcDbArc
 50
270.0
 51
0.0
  0
ARC
  5
BF
330
1F
100
AcDbEntity
  8
0
  6
Continuous
 62
     7
370
    25
100
AcDbCircle
 10
-58.0
 20
-43.0
 30
0.0
 40
2.000000000000007
100
AcDbArc
 50
180.0
 51
270.0
  0
ENDSEC
  0
SECTION
  2
OBJECTS
  0
DICTIONARY
  5
C
330
0
100
AcDbDictionary
281
     1
  3
ACAD_GROUP
350
D
  3
ACAD_LAYOUT
350
1A
  3
ACAD_MLINESTYLE
350
17
  3
ACAD_PLOTSETTINGS
350
19
  3
ACAD_PLOTSTYLENAME
350
E
  3
ACAD_SCALELIST
350
47
  0
DICTIONARY
  5
D
102
{ACAD_REACTORS
330
C
102
}
330
C
100
AcDbDictionary
281
     1
  0
DICTIONARY
  5
1A
102
{ACAD_REACTORS
330
C
102
}
330
C
100
AcDbDictionary
281
     1
  3
Layout1
350
1E
  3
Layout2
350
26
  3
Model
350
22
  0
DICTIONARY
  5
17
102
{ACAD_REACTORS
330
C
102
}
330
C
100
AcDbDictionary
281
     1
  3
Standard
350
18
  0
DICTIONARY
  5
19
102
{ACAD_REACTORS
330
C
102
}
330
C
100
AcDbDictionary
281
     1
  0
ACDBDICTIONARYWDFLT
  5
E
102
{ACAD_REACTORS
330
C
102
}
330
C
100
AcDbDictionary
281
     1
  3
Normal
350
F
100
AcDbDictionaryWithDefault
340
F
  0
DICTIONARY
  5
47
102
{ACAD_REACTORS
330
C
102
}
330
C
100
AcDbDictionary
281
     1
  3
A0
350
48
  3
A1
350
49
  3
A2
350
4A
  3
A3
350
4B
  3
A4
350
4C
  3
A5
350
4D
  3
A6
350
4E
  3
A7
350
4F
  3
A8
350
50
  3
A9
350
51
  3
B0
350
52
  3
B1
350
53
  3
B2
350
54
  3
B3
350
55
  3
B4
350
56
  3
B5
350
57
  3
B6
350
58
  3
B7
350
59
  3
B8
350
5A
  3
B9
350
5B
  3
C0
350
5C
  3
C1
350
5D
  3
C2
350
5E
  3
C3
350
5F
  3
C4
350
60
  3
C5
350
61
  3
C6
350
62
  3
C7
350
63
  3
C8
350
64
  3
C9
350
65
  3
D0
350
66
  3
D1
350
67
  3
D2
350
68
  0
LAYOUT
  5
1E
102
{ACAD_REACTORS
330
1A
102
}
330
1A
100
AcDbPlotSettings
  1

  2
none_device
  4

  6

 40
0.0
 41
0.0
 42
0.0
 43
0.0
 44
0.0
 45
0.0
 46
0.0
 47
0.0
 48
0.0
 49
0.0
140
0.0
141
0.0
142
1.0
143
1.0
 70
   688
 72
     1
 73
     0
 74
     5
  7

 75
    16
147
1.0
148
0.0
149
0.0
100
AcDbLayout
  1
Layout1
 70
     1
 71
     1
 10
0.0
 20
0.0
 11
420.0
 21
297.0
 12
0.0
 22
0.0
 32
0.0
 14
1.0000000000E+20
 24
1.0000000000E+20
 34
1.0000000000E+20
 15
-1.0000000000E+20
 25
-1.0000000000E+20
 35
-1.0000000000E+20
146
0.0
 13
0.0
 23
0.0
 33
0.0
 16
1.0
 26
0.0
 36
0.0
 17
0.0
 27
1.0
 37
0.0
 76
     0
330
1B
  0
LAYOUT
  5
26
102
{ACAD_REACTORS
330
1A
102
}
330
1A
100
AcDbPlotSettings
  1

  2
none_device
  4

  6

 40
0.0
 41
0.0
 42
0.0
 43
0.0
 44
0.0
 45
0.0
 46
0.0
 47
0.0
 48
0.0
 49
0.0
140
0.0
141
0.0
142
1.0
143
1.0
 70
   688
 72
     1
 73
     0
 74
     5
  7

 75
    16
147
1.0
148
0.0
149
0.0
100
AcDbLayout
  1
Layout2
 70
     1
 71
     2
 10
0.0
 20
0.0
 11
0.0
 21
0.0
 12
0.0
 22
0.0
 32
0.0
 14
0.0
 24
0.0
 34
0.0
 15
0.0
 25
0.0
 35
0.0
146
0.0
 13
0.0
 23
0.0
 33
0.0
 16
1.0
 26
0.0
 36
0.0
 17
0.0
 27
1.0
 37
0.0
 76
     0
330
23
  0
LAYOUT
  5
22
102
{ACAD_REACTORS
330
1A
102
}
330
1A
100
AcDbPlotSettings
  1

  2
none_device
  4
ANSI_A_(11.00_x_8.50_Inches)
  6

 40
6.35
 41
19.05
 42
6.35000508
 43
19.05000254
 44
279.4
 45
215.9
 46
130.61821972
 47
194.8946598103
 48
0.0
 49
0.0
140
0.0
141
0.0
142
0.0344818472
143
1.0
 70
  1696
 72
     0
 73
     0
 74
     0
  7

 75
     0
147
0.0179189148
148
-1300.4909072572
149
0.0
100
AcDbLayout
  1
Model
 70
     1
 71
     0
 10
0.0
 20
0.0
 11
420.0
 21
297.0
 12
0.0
 22
0.0
 32
0.0
 14
-143.9988399407
 24
-243.0414500624
 34
0.0
 15
150.2369224884
 25
0.9999999999
 35
0.0
146
0.0
 13
0.0
 23
0.0
 33
0.0
 16
1.0
 26
0.0
 36
0.0
 17
0.0
 27
1.0
 37
0.0
 76
     0
330
1F
331
29
  0
MLINESTYLE
  5
18
102
{ACAD_REACTORS
330
17
102
}
330
17
100
AcDbMlineStyle
  2
Standard
 70
     0
  3

 62
   256
 51
90.0
 52
90.0
 71
     2
 49
0.5
 62
   256
  6
BYLAYER
 49
-0.5
 62
   256
  6
BYLAYER
  0
ACDBPLACEHOLDER
  5
F
102
{ACAD_REACTORS
330
E
102
}
330
E
  0
SCALE
  5
48
102
{ACAD_REACTORS
330
47
102
}
330
47
100
AcDbScale
 70
     0
300
1:1
140
1.0
141
1.0
290
     1
  0
SCALE
  5
49
102
{ACAD_REACTORS
330
47
102
}
330
47
100
AcDbScale
 70
     0
300
1:2
140
1.0
141
2.0
290
     0
  0
SCALE
  5
4A
102
{ACAD_REACTORS
330
47
102
}
330
47
100
AcDbScale
 70
     0
300
1:4
140
1.0
141
4.0
290
     0
  0
SCALE
  5
4B
102
{ACAD_REACTORS
330
47
102
}
330
47
100
AcDbScale
 70
     0
300
1:5
140
1.0
141
5.0
290
     0
  0
SCALE
  5
4C
102
{ACAD_REACTORS
330
47
102
}
330
47
100
AcDbScale
 70
     0
300
1:8
140
1.0
141
8.0
290
     0
  0
SCALE
  5
4D
102
{ACAD_REACTORS
330
47
102
}
330
47
100
AcDbScale
 70
     0
300
1:10
140
1.0
141
10.0
290
     0
  0
SCALE
  5
4E
102
{ACAD_REACTORS
330
47
102
}
330
47
100
AcDbScale
 70
     0
300
1:16
140
1.0
141
16.0
290
     0
  0
SCALE
  5
4F
102
{ACAD_REACTORS
330
47
102
}
330
47
100
AcDbScale
 70
     0
300
1:20
140
1.0
141
20.0
290
     0
  0
SCALE
  5
50
102
{ACAD_REACTORS
330
47
102
}
330
47
100
AcDbScale
 70
     0
300
1:30
140
1.0
141
30.0
290
     0
  0
SCALE
  5
51
102
{ACAD_REACTORS
330
47
102
}
330
47
100
AcDbScale
 70
     0
300
1:40
140
1.0
141
40.0
290
     0
  0
SCALE
  5
52
102
{ACAD_REACTORS
330
47
102
}
330
47
100
AcDbScale
 70
     0
300
1:50
140
1.0
141
50.0
290
     0
  0
SCALE
  5
53
102
{ACAD_REACTORS
330
47
102
}
330
47
100
AcDbScale
 70
     0
300
1:100
140
1.0
141
100.0
290
     0
  0
SCALE
  5
54
102
{ACAD_REACTORS
330
47
102
}
330
47
100
AcDbScale
 70
     0
300
2:1
140
2.0
141
1.0
290
     0
  0
SCALE
  5
55
102
{ACAD_REACTORS
330
47
102
}
330
47
100
AcDbScale
 70
     0
300
4:1
140
4.0
141
1.0
290
     0
  0
SCALE
  5
56
102
{ACAD_REACTORS
330
47
102
}
330
47
100
AcDbScale
 70
     0
300
8:1
140
8.0
141
1.0
290
     0
  0
SCALE
  5
57
102
{ACAD_REACTORS
330
47
102
}
330
47
100
AcDbScale
 70
     0
300
10:1
140
10.0
141
1.0
290
     0
  0
SCALE
  5
58
102
{ACAD_REACTORS
330
47
102
}
330
47
100
AcDbScale
 70
     0
300
100:1
140
100.0
141
1.0
290
     0
  0
SCALE
  5
59
102
{ACAD_REACTORS
330
47
102
}
330
47
100
AcDbScale
 70
     0
300
1/128" = 1'-0"
140
0.0078125
141
12.0
290
     0
  0
SCALE
  5
5A
102
{ACAD_REACTORS
330
47
102
}
330
47
100
AcDbScale
 70
     0
300
1/64" = 1'-0"
140
0.015625
141
12.0
290
     0
  0
SCALE
  5
5B
102
{ACAD_REACTORS
330
47
102
}
330
47
100
AcDbScale
 70
     0
300
1/32" = 1'-0"
140
0.03125
141
12.0
290
     0
  0
SCALE
  5
5C
102
{ACAD_REACTORS
330
47
102
}
330
47
100
AcDbScale
 70
     0
300
1/16" = 1'-0"
140
0.0625
141
12.0
290
     0
  0
SCALE
  5
5D
102
{ACAD_REACTORS
330
47
102
}
330
47
100
AcDbScale
 70
     0
300
3/32" = 1'-0"
140
0.09375
141
12.0
290
     0
  0
SCALE
  5
5E
102
{ACAD_REACTORS
330
47
102
}
330
47
100
AcDbScale
 70
     0
300
1/8" = 1'-0"
140
0.125
141
12.0
290
     0
  0
SCALE
  5
5F
102
{ACAD_REACTORS
330
47
102
}
330
47
100
AcDbScale
 70
     0
300
3/16" = 1'-0"
140
0.1875
141
12.0
290
     0
  0
SCALE
  5
60
102
{ACAD_REACTORS
330
47
102
}
330
47
100
AcDbScale
 70
     0
300
1/4" = 1'-0"
140
0.25
141
12.0
290
     0
  0
SCALE
  5
61
102
{ACAD_REACTORS
330
47
102
}
330
47
100
AcDbScale
 70
     0
300
3/8" = 1'-0"
140
0.375
141
12.0
290
     0
  0
SCALE
  5
62
102
{ACAD_REACTORS
330
47
102
}
330
47
100
AcDbScale
 70
     0
300
1/2" = 1'-0"
140
0.5
141
12.0
290
     0
  0
SCALE
  5
63
102
{ACAD_REACTORS
330
47
102
}
330
47
100
AcDbScale
 70
     0
300
3/4" = 1'-0"
140
0.75
141
12.0
290
     0
  0
SCALE
  5
64
102
{ACAD_REACTORS
330
47
102
}
330
47
100
AcDbScale
 70
     0
300
1" = 1'-0"
140
1.0
141
12.0
290
     0
  0
SCALE
  5
65
102
{ACAD_REACTORS
330
47
102
}
330
47
100
AcDbScale
 70
     0
300
1-1/2" = 1'-0"
140
1.5
141
12.0
290
     0
  0
SCALE
  5
66
102
{ACAD_REACTORS
330
47
102
}
330
47
100
AcDbScale
 70
     0
300
3" = 1'-0"
140
3.0
141
12.0
290
     0
  0
SCALE
  5
67
102
{ACAD_REACTORS
330
47
102
}
330
47
100
AcDbScale
 70
     0
300
6" = 1'-0"
140
6.0
141
12.0
290
     0
  0
SCALE
  5
68
102
{ACAD_REACTORS
330
47
102
}
330
47
100
AcDbScale
 70
     0
300
1'-0" = 1'-0"
140
12.0
141
12.0
290
     0
  0
ENDSEC
  0
EOF
