  0
SECTION
  2
HEADER
  9
$ACADVER
  1
AC1015
  9
$ACADMAINTVER
 70
     6
  9
$DWGCODEPAGE
  3
ANSI_1252
  9
$INSBASE
 10
0.0
 20
0.0
 30
0.0
  9
$EXTMIN
 10
-77.9235808179
 20
-169.814354747
 30
0.0
  9
$EXTMAX
 10
63.9099953884
 20
35.919418929
 30
0.0
  9
$LIMMIN
 10
0.0
 20
0.0
  9
$LIMMAX
 10
420.0
 20
297.0
  9
$ORTHOMODE
 70
     0
  9
$REGENMODE
 70
     1
  9
$FILLMODE
 70
     1
  9
$QTEXTMODE
 70
     0
  9
$MIRRTEXT
 70
     1
  9
$LTSCALE
 40
1.0
  9
$ATTMODE
 70
     1
  9
$TEXTSIZE
 40
6.35
  9
$TRACEWID
 40
1.0
  9
$TEXTSTYLE
  7
Standard
  9
$CLAYER
  8
0
  9
$CELTYPE
  6
ByLayer
  9
$CECOLOR
 62
   256
  9
$CELTSCALE
 40
1.0
  9
$DISPSILH
 70
     0
  9
$DIMSCALE
 40
1.0
  9
$DIMASZ
 40
5.9944
  9
$DIMEXO
 40
0.9906
  9
$DIMDLI
 40
3.75
  9
$DIMRND
 40
0.0
  9
$DIMDLE
 40
0.0
  9
$DIMEXE
 40
0.9906
  9
$DIMTP
 40
0.0
  9
$DIMTM
 40
0.0
  9
$DIMTXT
 40
6.35
  9
$DIMCEN
 40
2.5
  9
$DIMTSZ
 40
0.0
  9
$DIMTOL
 70
     0
  9
$DIMLIM
 70
     0
  9
$DIMTIH
 70
     1
  9
$DIMTOH
 70
     1
  9
$DIMSE1
 70
     0
  9
$DIMSE2
 70
     0
  9
$DIMTAD
 70
     1
  9
$DIMZIN
 70
     0
  9
$DIMBLK
  1

  9
$DIMASO
 70
     1
  9
$DIMSHO
 70
     1
  9
$DIMPOST
  1

  9
$DIMAPOST
  1

  9
$DIMALT
 70
     0
  9
$DIMALTD
 70
     3
  9
$DIMALTF
 40
0.0393700787
  9
$DIMLFAC
 40
1.0
  9
$DIMTOFL
 70
     1
  9
$DIMTVP
 40
0.0
  9
$DIMTIX
 70
     0
  9
$DIMSOXD
 70
     0
  9
$DIMSAH
 70
     0
  9
$DIMBLK1
  1

  9
$DIMBLK2
  1

  9
$DIMSTYLE
  2
ISO-25
  9
$DIMCLRD
 70
     0
  9
$DIMCLRE
 70
     0
  9
$DIMCLRT
 70
     0
  9
$DIMTFAC
 40
1.0
  9
$DIMGAP
 40
1.524
  9
$DIMJUST
 70
     0
  9
$DIMSD1
 70
     0
  9
$DIMSD2
 70
     0
  9
$DIMTOLJ
 70
     0
  9
$DIMTZIN
 70
     0
  9
$DIMALTZ
 70
     0
  9
$DIMALTTZ
 70
     0
  9
$DIMUPT
 70
     0
  9
$DIMDEC
 70
     2
  9
$DIMTDEC
 70
     2
  9
$DIMALTU
 70
     2
  9
$DIMALTTD
 70
     3
  9
$DIMTXSTY
  7
Standard
  9
$DIMAUNIT
 70
     0
  9
$DIMADEC
 70
     2
  9
$DIMALTRND
 40
0.0
  9
$DIMAZIN
 70
     0
  9
$DIMDSEP
 70
    44
  9
$DIMATFIT
 70
     3
  9
$DIMFRAC
 70
     0
  9
$DIMLDRBLK
  1

  9
$DIMLUNIT
 70
     2
  9
$DIMLWD
 70
    -2
  9
$DIMLWE
 70
    -2
  9
$DIMTMOVE
 70
     0
  9
$LUNITS
 70
     2
  9
$LUPREC
 70
     2
  9
$SKETCHINC
 40
1.0
  9
$FILLETRAD
 40
10.0
  9
$AUNITS
 70
     0
  9
$AUPREC
 70
     2
  9
$MENU
  1
.
  9
$ELEVATION
 40
0.0
  9
$PELEVATION
 40
0.0
  9
$THICKNESS
 40
0.0
  9
$LIMCHECK
 70
     0
  9
$CHAMFERA
 40
0.0
  9
$CHAMFERB
 40
0.0
  9
$CHAMFERC
 40
0.0
  9
$CHAMFERD
 40
0.0
  9
$SKPOLY
 70
     0
  9
$TDCREATE
 40
2457009.465727616
  9
$TDUCREATE
 40
2457009.465727616
  9
$TDUPDATE
 40
2457009.465906412
  9
$TDUUPDATE
 40
2457009.465906412
  9
$TDINDWG
 40
0.0000000116
  9
$TDUSRTIMER
 40
0.0000000116
  9
$USRTIMER
 70
     1
  9
$ANGBASE
 50
0.0
  9
$ANGDIR
 70
     0
  9
$PDMODE
 70
     0
  9
$PDSIZE
 40
-1.0
  9
$PLINEWID
 40
0.0
  9
$SPLFRAME
 70
     0
  9
$SPLINETYPE
 70
     6
  9
$SPLINESEGS
 70
     8
  9
$HANDSEED
  5
2CB
  9
$SURFTAB1
 70
     6
  9
$SURFTAB2
 70
     6
  9
$SURFTYPE
 70
     6
  9
$SURFU
 70
     6
  9
$SURFV
 70
     6
  9
$UCSBASE
  2

  9
$UCSNAME
  2

  9
$UCSORG
 10
0.0
 20
0.0
 30
0.0
  9
$UCSXDIR
 10
1.0
 20
0.0
 30
0.0
  9
$UCSYDIR
 10
0.0
 20
1.0
 30
0.0
  9
$UCSORTHOREF
  2

  9
$UCSORTHOVIEW
 70
     0
  9
$UCSORGTOP
 10
0.0
 20
0.0
 30
0.0
  9
$UCSORGBOTTOM
 10
0.0
 20
0.0
 30
0.0
  9
$UCSORGLEFT
 10
0.0
 20
0.0
 30
0.0
  9
$UCSORGRIGHT
 10
0.0
 20
0.0
 30
0.0
  9
$UCSORGFRONT
 10
0.0
 20
0.0
 30
0.0
  9
$UCSORGBACK
 10
0.0
 20
0.0
 30
0.0
  9
$PUCSBASE
  2

  9
$PUCSNAME
  2

  9
$PUCSORG
 10
0.0
 20
0.0
 30
0.0
  9
$PUCSXDIR
 10
1.0
 20
0.0
 30
0.0
  9
$PUCSYDIR
 10
0.0
 20
1.0
 30
0.0
  9
$PUCSORTHOREF
  2

  9
$PUCSORTHOVIEW
 70
     0
  9
$PUCSORGTOP
 10
0.0
 20
0.0
 30
0.0
  9
$PUCSORGBOTTOM
 10
0.0
 20
0.0
 30
0.0
  9
$PUCSORGLEFT
 10
0.0
 20
0.0
 30
0.0
  9
$PUCSORGRIGHT
 10
0.0
 20
0.0
 30
0.0
  9
$PUCSORGFRONT
 10
0.0
 20
0.0
 30
0.0
  9
$PUCSORGBACK
 10
0.0
 20
0.0
 30
0.0
  9
$USERI1
 70
     0
  9
$USERI2
 70
     0
  9
$USERI3
 70
     0
  9
$USERI4
 70
     0
  9
$USERI5
 70
     0
  9
$USERR1
 40
0.0
  9
$USERR2
 40
0.0
  9
$USERR3
 40
0.0
  9
$USERR4
 40
0.0
  9
$USERR5
 40
0.0
  9
$WORLDVIEW
 70
     1
  9
$SHADEDGE
 70
     3
  9
$SHADEDIF
 70
    70
  9
$TILEMODE
 70
     0
  9
$MAXACTVP
 70
    64
  9
$PINSBASE
 10
0.0
 20
0.0
 30
0.0
  9
$PLIMCHECK
 70
     0
  9
$PEXTMIN
 10
-77.9235808179
 20
-169.814354747
 30
0.0
  9
$PEXTMAX
 10
63.9099953884
 20
35.919418929
 30
0.0
  9
$PLIMMIN
 10
0.0
 20
0.0
  9
$PLIMMAX
 10
0.0
 20
0.0
  9
$UNITMODE
 70
     0
  9
$VISRETAIN
 70
     1
  9
$PLINEGEN
 70
     0
  9
$PSLTSCALE
 70
     1
  9
$TREEDEPTH
 70
  3020
  9
$CMLSTYLE
  2
Standard
  9
$CMLJUST
 70
     0
  9
$CMLSCALE
 40
20.0
  9
$PROXYGRAPHICS
 70
     1
  9
$MEASUREMENT
 70
     1
  9
$CELWEIGHT
370
    -1
  9
$ENDCAPS
280
     0
  9
$JOINSTYLE
280
     0
  9
$LWDISPLAY
290
     1
  9
$INSUNITS
 70
     4
  9
$HYPERLINKBASE
  1

  9
$STYLESHEET
  1

  9
$XEDIT
290
     1
  9
$CEPSNTYPE
380
     0
  9
$PSTYLEMODE
290
     1
  9
$FINGERPRINTGUID
  2
{C2B672C2-81BD-44BB-AD81-34DB320FE2A2}
  9
$VERSIONGUID
  2
{FAEB1C32-E019-11D5-929B-00C0DF256EC4}
  9
$EXTNAMES
290
     1
  9
$PSVPSCALE
 40
0.0
  9
$OLESTARTUP
290
     0
  0
ENDSEC
  0
SECTION
  2
CLASSES
  0
CLASS
  1
ACDBDICTIONARYWDFLT
  2
AcDbDictionaryWithDefault
  3
ObjectDBX Classes
 90
        0
280
     0
281
     0
  0
CLASS
  1
VISUALSTYLE
  2
AcDbVisualStyle
  3
ObjectDBX Classes
 90
     4095
280
     0
281
     0
  0
CLASS
  1
MATERIAL
  2
AcDbMaterial
  3
ObjectDBX Classes
 90
     1153
280
     0
281
     0
  0
CLASS
  1
SCALE
  2
AcDbScale
  3
ObjectDBX Classes
 90
     1153
280
     0
281
     0
  0
CLASS
  1
SUN
  2
AcDbSun
  3
SCENEOE
 90
     1153
280
     0
281
     0
  0
CLASS
  1
ACDBPLACEHOLDER
  2
AcDbPlaceHolder
  3
ObjectDBX Classes
 90
        0
280
     0
281
     0
  0
CLASS
  1
LAYOUT
  2
AcDbLayout
  3
ObjectDBX Classes
 90
        0
280
     0
281
     0
  0
ENDSEC
  0
SECTION
  2
TABLES
  0
TABLE
  2
VPORT
  5
8
330
0
100
AcDbSymbolTable
 70
     1
  0
VPORT
  5
29
330
8
100
AcDbSymbolTableRecord
100
AcDbViewportTableRecord
  2
*Active
 70
     0
 10
0.0
 20
0.0
 11
1.0
 21
1.0
 12
-7.0067927147
 22
-66.947467909
 13
0.0
 23
0.0
 14
10.0
 24
10.0
 15
10.0
 25
10.0
 16
0.0
 26
0.0
 36
1.0
 17
0.0
 27
0.0
 37
0.0
 40
209.8484491495
 41
0.6894034639
 42
50.0
 43
0.0
 44
0.0
 50
0.0
 51
0.0
 71
     0
 72
   100
 73
     1
 74
     3
 75
     0
 76
     0
 77
     0
 78
     0
281
     0
 65
     1
110
0.0
120
0.0
130
0.0
111
1.0
121
0.0
131
0.0
112
0.0
122
1.0
132
0.0
 79
     0
146
0.0
  0
ENDTAB
  0
TABLE
  2
LTYPE
  5
5
330
0
100
AcDbSymbolTable
 70
     6
  0
LTYPE
  5
14
330
5
100
AcDbSymbolTableRecord
100
AcDbLinetypeTableRecord
  2
ByBlock
 70
     0
  3

 72
    65
 73
     0
 40
0.0
  0
LTYPE
  5
15
330
5
100
AcDbSymbolTableRecord
100
AcDbLinetypeTableRecord
  2
ByLayer
 70
     0
  3

 72
    65
 73
     0
 40
0.0
  0
LTYPE
  5
16
330
5
100
AcDbSymbolTableRecord
100
AcDbLinetypeTableRecord
  2
Continuous
 70
     0
  3
Solid line
 72
    65
 73
     0
 40
0.0
  0
LTYPE
  5
6A
330
5
100
AcDbSymbolTableRecord
100
AcDbLinetypeTableRecord
  2
HIDDEN
 70
     0
  3
Hidden __ __ __ __ __ __ __ __ __ __ __ __ __ __
 72
    65
 73
     2
 40
1.905
 49
1.27
 74
     0
 49
-0.635
 74
     0
  0
LTYPE
  5
6B
330
5
100
AcDbSymbolTableRecord
100
AcDbLinetypeTableRecord
  2
PHANTOM
 70
     0
  3
Phantom ______  __  __  ______  __  __  ______
 72
    65
 73
     6
 40
12.7
 49
6.35
 74
     0
 49
-1.27
 74
     0
 49
1.27
 74
     0
 49
-1.27
 74
     0
 49
1.27
 74
     0
 49
-1.27
 74
     0
  0
LTYPE
  5
6C
330
5
100
AcDbSymbolTableRecord
100
AcDbLinetypeTableRecord
  2
CENTER
 70
     0
  3
Center ____ _ ____ _ ____ _ ____ _ ____ _ ____
 72
    65
 73
     4
 40
10.16
 49
6.35
 74
     0
 49
-1.27
 74
     0
 49
1.27
 74
     0
 49
-1.27
 74
     0
  0
LTYPE
  5
6D
330
5
100
AcDbSymbolTableRecord
100
AcDbLinetypeTableRecord
  2
CENTERX2
 70
     0
  3
Center (2x) ________  __  ________  __  _____
 72
    65
 73
     4
 40
20.32
 49
12.7
 74
     0
 49
-2.54
 74
     0
 49
2.54
 74
     0
 49
-2.54
 74
     0
  0
LTYPE
  5
6E
330
5
100
AcDbSymbolTableRecord
100
AcDbLinetypeTableRecord
  2
DOT2
 70
     0
  3
Dot (.5x) ........................................
 72
    65
 73
     2
 40
0.635
 49
0.0
 74
     0
 49
-0.635
 74
     0
  0
ENDTAB
  0
TABLE
  2
LAYER
  5
2
330
0
100
AcDbSymbolTable
 70
     1
  0
LAYER
  5
10
330
2
100
AcDbSymbolTableRecord
100
AcDbLayerTableRecord
  2
0
 70
     0
 62
     7
  6
Continuous
370
    -3
390
F
  0
ENDTAB
  0
TABLE
  2
STYLE
  5
3
330
0
100
AcDbSymbolTable
 70
     1
  0
STYLE
  5
11
330
3
100
AcDbSymbolTableRecord
100
AcDbTextStyleTableRecord
  2
Standard
 70
     0
 40
0.0
 41
1.0
 50
0.0
 71
     0
 42
6.35
  3
txt
  4

  0
ENDTAB
  0
TABLE
  2
VIEW
  5
6
330
0
100
AcDbSymbolTable
 70
     0
  0
ENDTAB
  0
TABLE
  2
UCS
  5
7
330
0
100
AcDbSymbolTable
 70
     0
  0
ENDTAB
  0
TABLE
  2
APPID
  5
9
330
0
100
AcDbSymbolTable
 70
     1
  0
APPID
  5
12
330
9
100
AcDbSymbolTableRecord
100
AcDbRegAppTableRecord
  2
ACAD
 70
     0
  0
ENDTAB
  0
TABLE
  2
DIMSTYLE
  5
A
330
0
100
AcDbSymbolTable
 70
     1
100
AcDbDimStyleTable
  0
DIMSTYLE
105
27
330
A
100
AcDbSymbolTableRecord
100
AcDbDimStyleTableRecord
  2
ISO-25
 70
     0
 41
2.5
 42
0.625
 43
3.75
 44
1.25
 73
     0
 74
     0
 77
     1
 78
     8
140
2.5
141
2.5
143
0.0393700787
147
0.625
171
     3
172
     1
178
     0
271
     2
272
     2
274
     3
278
    44
283
     0
284
     8
340
11
  0
ENDTAB
  0
TABLE
  2
BLOCK_RECORD
  5
1
330
0
100
AcDbSymbolTable
 70
     2
  0
BLOCK_RECORD
  5
1F
330
1
100
AcDbSymbolTableRecord
100
AcDbBlockTableRecord
  2
*Model_Space
340
22
  0
BLOCK_RECORD
  5
1C1
330
1
100
AcDbSymbolTableRecord
100
AcDbBlockTableRecord
  2
*Paper_Space
340
1C2
  0
BLOCK_RECORD
  5
1B
330
1
100
AcDbSymbolTableRecord
100
AcDbBlockTableRecord
  2
*Paper_Space0
340
1E
  0
BLOCK_RECORD
  5
23
330
1
100
AcDbSymbolTableRecord
100
AcDbBlockTableRecord
  2
*Paper_Space1
340
26
  0
ENDTAB
  0
ENDSEC
  0
SECTION
  2
BLOCKS
  0
BLOCK
  5
20
330
1F
100
AcDbEntity
  8
0
100
AcDbBlockBegin
  2
*Model_Space
 70
     0
 10
0.0
 20
0.0
 30
0.0
  3
*Model_Space
  1
*Model_Space
  0
ENDBLK
  5
21
330
1F
100
AcDbEntity
  8
0
100
AcDbBlockEnd
  0
BLOCK
  5
1C3
330
1C1
100
AcDbEntity
 67
     1
  8
0
100
AcDbBlockBegin
  2
*Paper_Space
 70
     0
 10
0.0
 20
0.0
 30
0.0
  3
*Paper_Space
  1
*Paper_Space
  0
ENDBLK
  5
1C4
330
1C1
100
AcDbEntity
 67
     1
  8
0
100
AcDbBlockEnd
  0
BLOCK
  5
1C
330
1B
100
AcDbEntity
  8
0
100
AcDbBlockBegin
  2
*Paper_Space0
 70
     0
 10
0.0
 20
0.0
 30
0.0
  3
*Paper_Space0
  1
*Paper_Space0
  0
SPLINE
  5
C6
330
1B
100
AcDbEntity
  8
0
  6
Continuous
 62
     7
370
    15
100
AcDbSpline
210
0.0
220
0.0
230
1.0
 70
     8
 71
     3
 72
    10
 73
     6
 74
     0
 42
0.000000001
 43
0.00000001
 40
0.0
 40
0.0
 40
0.0
 40
0.0
 40
0.5
 40
0.5
 40
1.0
 40
1.0
 40
1.0
 40
1.0
 10
170.4850528102753
 20
-43.25123914416512
 30
0.0
 10
170.5054866949117
 20
-42.77466418493073
 30
0.0
 10
170.522700851465
 20
-42.29762334779461
 30
0.0
 10
170.5506370037654
 20
-41.3426022916319
 30
0.0
 10
170.561362011822
 20
-40.86430398785814
 30
0.0
 10
170.5687999909656
 20
-40.38659242237325
 30
0.0
  0
SPLINE
  5
C7
330
1B
100
AcDbEntity
  8
0
  6
Continuous
 62
     7
370
    15
100
AcDbSpline
210
0.0
220
0.0
230
1.0
 70
     8
 71
     3
 72
    18
 73
    14
 74
     0
 42
0.000000001
 43
0.00000001
 40
0.0
 40
0.0
 40
0.0
 40
0.0
 40
0.1250000000000013
 40
0.1250000000000013
 40
0.2500000000000026
 40
0.2500000000000026
 40
0.5000000000000026
 40
0.5000000000000026
 40
0.6250000000000026
 40
0.6250000000000026
 40
0.7500000000000024
 40
0.7500000000000024
 40
1.0
 40
1.0
 40
1.0
 40
1.0
 10
168.9334094530946
 20
-51.20818286776487
 30
0.0
 10
169.0190137066711
 20
-50.95117796063542
 30
0.0
 10
169.1056319600365
 20
-50.68193707723535
 30
0.0
 10
169.2788976223002
 20
-50.11855884789389
 30
0.0
 10
169.3659536495954
 20
-49.82294861124624
 30
0.0
 10
169.6208929371521
 20
-48.9079507594349
 30
0.0
 10
169.7813917375784
 20
-48.26558068756889
 30
0.0
 10
169.9959449563656
 20
-47.25176607409222
 30
0.0
 10
170.063086349285
 20
-46.90538523109016
 30
0.0
 10
170.1863293908253
 20
-46.19457651665941
 30
0.0
 10
170.2422246880432
 20
-45.83060645792143
 30
0.0
 10
170.3864535213247
 20
-44.73794080884975
 30
0.0
 10
170.4529580652175
 20
-43.99977776468442
 30
0.0
 10
170.4850528102752
 20
-43.25123914416511
 30
0.0
  0
SPLINE
  5
C8
330
1B
100
AcDbEntity
  8
0
  6
Continuous
 62
     7
370
    15
100
AcDbSpline
210
0.0
220
0.0
230
1.0
 70
     8
 71
     3
 72
     9
 73
     5
 74
     0
 42
0.000000001
 43
0.00000001
 40
0.0
 40
0.0
 40
0.0
 40
0.0
 40
0.5
 40
1.0
 40
1.0
 40
1.0
 40
1.0
 10
169.8331229041902
 20
-26.34903737158245
 30
0.0
 10
169.7506193610219
 20
-25.66998648044271
 30
0.0
 10
169.5719810045719
 20
-24.31389794860764
 30
0.0
 10
169.3660616871514
 20
-22.96183863828621
 30
0.0
 10
169.2562739148342
 20
-22.28681745134883
 30
0.0
  0
SPLINE
  5
C9
330
1B
100
AcDbEntity
  8
0
  6
Continuous
 62
     7
370
    15
100
AcDbSpline
210
0.0
220
0.0
230
1.0
 70
     8
 71
     3
 72
     8
 73
     4
 74
     0
 42
0.000000001
 43
0.00000001
 40
0.0
 40
0.0
 40
0.0
 40
0.0
 40
1.0
 40
1.0
 40
1.0
 40
1.0
 10
169.2562739148343
 20
-22.28681745134883
 30
0.0
 10
169.1834851525711
 20
-21.83928166788597
 30
0.0
 10
169.0973955433916
 20
-21.39691743780946
 30
0.0
 10
168.9987452195555
 20
-20.95948555179271
 30
0.0
  0
SPLINE
  5
CA
330
1B
100
AcDbEntity
  8
0
  6
Continuous
 62
     7
370
    15
100
AcDbSpline
210
0.0
220
0.0
230
1.0
 70
     8
 71
     3
 72
    17
 73
    13
 74
     0
 42
0.000000001
 43
0.00000001
 40
0.0
 40
0.0
 40
0.0
 40
0.0
 40
0.1062511751003601
 40
0.2124638239107761
 40
0.319681576985296
 40
0.4276262155009596
 40
0.5344571610135863
 40
0.6400661415573963
 40
0.7462506697436999
 40
0.8539007615772497
 40
0.9616432599872947
 40
0.9999999999999999
 40
0.9999999999999999
 40
0.9999999999999999
 40
0.9999999999999999
 10
20.89787998697656
 20
-70.83462760201655
 30
0.0
 10
20.82605120566995
 20
-70.82164178470894
 30
0.0
 10
20.68241968791179
 20
-70.79567485870388
 30
0.0
 10
19.56414132714426
 20
-70.61442954213334
 30
0.0
 10
17.90842642061205
 20
-70.4094497608615
 30
0.0
 10
15.82368737318174
 20
-70.25856627641815
 30
0.0
 10
13.57585994980162
 20
-70.23387672974908
 30
0.0
 10
11.42722447516867
 20
-70.34228477172891
 30
0.0
 10
9.582542109755288
 20
-70.53834427678301
 30
0.0
 10
8.298910993842307
 20
-70.7290633790078
 30
0.0
 10
7.673841688242478
 20
-70.83879579651517
 30
0.0
 10
7.760215060416076
 20
-70.82374283498999
 30
0.0
 10
7.782891434476941
 20
-70.81979084634256
 30
0.0
  0
SPLINE
  5
CC
330
1B
100
AcDbEntity
  8
0
  6
Continuous
 62
     7
370
    15
100
AcDbSpline
210
0.0
220
0.0
230
1.0
 70
    11
 71
     3
 72
    39
 73
    35
 74
     0
 42
0.000000001
 43
0.00000001
 40
0.0
 40
0.0
 40
0.0
 40
0.0
 40
0.0317922123689897
 40
0.063859279143743
 40
0.0956838704813851
 40
0.1269209116373071
 40
0.1578322395101465
 40
0.1888145871259921
 40
0.219594526035343
 40
0.249907361317751
 40
0.2802187530579692
 40
0.3110416951078102
 40
0.3420534127568081
 40
0.3730099235070892
 40
0.4042558892791909
 40
0.436053263002413
 40
0.468111402711445
 40
0.4999991687151673
 40
0.5318699831379715
 40
0.5639550287220658
 40
0.5957398480944883
 40
0.6270068345040386
 40
0.6579378448427218
 40
0.6889593541784552
 40
0.7197396415097301
 40
0.7500720433320134
 40
0.7803567439193155
 40
0.8111638324388385
 40
0.8421359607555324
 40
0.8730677306872677
 40
0.9042884111517495
 40
0.9361372475800314
 40
0.9682141731487575
 40
1.0
 40
1.0
 40
1.0
 40
1.0
 10
9.038780167519967
 20
-33.33462760201655
 30
0.0
 10
9.038783900670696
 20
-33.07801319864266
 30
0.0
 10
9.087210499932247
 20
-32.56257288659814
 30
0.0
 10
9.306341881232804
 20
-31.81906830711898
 30
0.0
 10
9.652108228071333
 20
-31.13078367743091
 30
0.0
 10
10.12026188020385
 20
-30.53078131149474
 30
0.0
 10
10.69116260689459
 20
-30.03757251182858
 30
0.0
 10
11.34766764473463
 20
-29.67315929658033
 30
0.0
 10
12.05758038648494
 20
-29.44196485765391
 30
0.0
 10
12.79560309247593
 20
-29.36546092497155
 30
0.0
 10
13.53395580144728
 20
-29.44183670639586
 30
0.0
 10
14.24461983022052
 20
-29.67247375181726
 30
0.0
 10
14.90248056606869
 20
-30.03643047762663
 30
0.0
 10
15.47434749485624
 20
-30.52958248563004
 30
0.0
 10
15.94330076476438
 20
-31.12921383896974
 30
0.0
 10
16.28971662238227
 20
-31.81696304568136
 30
0.0
 10
16.50886009276828
 20
-32.56101938690683
 30
0.0
 10
16.58100174547281
 20
-33.33443478523768
 30
0.0
 10
16.50872200711001
 20
-34.10804472817727
 30
0.0
 10
16.28954856915727
 20
-34.85207272893436
 30
0.0
 10
15.9430724404237
 20
-35.54009567020378
 30
0.0
 10
15.47431171513447
 20
-36.13971218372527
 30
0.0
 10
14.90249787367437
 20
-36.63297642082087
 30
0.0
 10
14.24507631323707
 20
-36.99679186947831
 30
0.0
 10
13.53449262659295
 20
-37.22732072824081
 30
0.0
 10
12.79655671490865
 20
-37.30377559033795
 30
0.0
 10
12.05835839389138
 20
-37.22747204759194
 30
0.0
 10
11.34848441941055
 20
-36.99642338444659
 30
0.0
 10
10.69159835853983
 20
-36.63208535850105
 30
0.0
 10
10.12068523429654
 20
-36.13893721164775
 30
0.0
 10
9.652402432949735
 20
-35.53874776836833
 30
0.0
 10
9.30662608521679
 20
-34.85031680621835
 30
0.0
 10
9.087180944728962
 20
-34.10667283557908
 30
0.0
 10
9.038776435119047
 20
-33.59119046396867
 30
0.0
 10
9.038780167519965
 20
-33.33462760201655
 30
0.0
  0
SPLINE
  5
CD
330
1B
100
AcDbEntity
  8
0
  6
Continuous
 62
     7
370
    15
100
AcDbSpline
210
0.0
220
0.0
230
1.0
 70
     8
 71
     3
 72
    14
 73
    10
 74
     0
 42
0.000000001
 43
0.00000001
 40
0.0
 40
0.0
 40
0.0
 40
0.0
 40
0.25
 40
0.25
 40
0.5
 40
0.5
 40
0.75
 40
0.75
 40
1.0
 40
1.0
 40
1.0
 40
1.0
 10
9.44085553590951
 20
-31.63004207029953
 30
0.0
 10
9.33028798261154
 20
-31.8995027576253
 30
0.0
 10
9.245715054588432
 20
-32.18189793904183
 30
0.0
 10
9.13287301992341
 20
-32.75589363173434
 30
0.0
 10
9.104602521557565
 20
-33.04483311399449
 30
0.0
 10
9.104834692886726
 20
-33.62662791474428
 30
0.0
 10
9.134220137910514
 20
-33.92178051231041
 30
0.0
 10
9.247325534909672
 20
-34.49234377643889
 30
0.0
 10
9.330591802057391
 20
-34.77037366629941
 30
0.0
 10
9.441686730665893
 20
-35.04084910765294
 30
0.0
  0
SPLINE
  5
CE
330
1B
100
AcDbEntity
  8
0
  6
Continuous
 62
     7
370
    15
100
AcDbSpline
210
0.0
220
0.0
230
1.0
 70
     8
 71
     3
 72
    14
 73
    10
 74
     0
 42
0.000000001
 43
0.00000001
 40
0.0
 40
0.0
 40
0.0
 40
0.0
 40
0.25
 40
0.25
 40
0.5
 40
0.5
 40
0.75
 40
0.75
 40
1.0
 40
1.0
 40
1.0
 40
1.0
 10
16.15850774700478
 20
-35.03209809028036
 30
0.0
 10
16.26799000239848
 20
-34.76399968375278
 30
0.0
 10
16.35163841393794
 20
-34.48302803745545
 30
0.0
 10
16.46310522287986
 20
-33.91214577219923
 30
0.0
 10
16.49095474087059
 20
-33.62476514605404
 30
0.0
 10
16.4911282416573
 20
-33.04614175583622
 30
0.0
 10
16.46254601816419
 20
-32.75264394943436
 30
0.0
 10
16.35145403531177
 20
-32.18514807693051
 30
0.0
 10
16.2693949284321
 20
-31.90856681986753
 30
0.0
 10
16.15967165999033
 20
-31.63946337774851
 30
0.0
  0
SPLINE
  5
DE
330
1B
100
AcDbEntity
  8
0
  6
Continuous
 62
     7
370
    15
100
AcDbSpline
210
0.0
220
0.0
230
1.0
 70
     8
 71
     3
 72
    18
 73
    14
 74
     0
 42
0.000000001
 43
0.00000001
 40
0.0
 40
0.0
 40
0.0
 40
0.0
 40
0.2499999999999991
 40
0.2499999999999991
 40
0.3749999999999987
 40
0.3749999999999987
 40
0.4999999999999984
 40
0.4999999999999984
 40
0.6249999999999981
 40
0.6249999999999981
 40
0.7499999999999978
 40
0.7499999999999978
 40
1.0
 40
1.0
 40
1.0
 40
1.0
 10
168.998745219556
 20
-20.95948555179262
 30
0.0
 10
168.8072748803627
 20
-20.11047433385935
 30
0.0
 10
168.5844956568918
 20
-19.29994950949945
 30
0.0
 10
168.2166108880234
 20
-18.1346637504851
 30
0.0
 10
168.0880831563369
 20
-17.75398388099127
 30
0.0
 10
167.8231268487041
 20
-17.01253602473823
 30
0.0
 10
167.6886557386367
 20
-16.65709346528255
 30
0.0
 10
167.4185583642263
 20
-15.97466130176184
 30
0.0
 10
167.282925155411
 20
-15.64767790643602
 30
0.0
 10
167.0133129082243
 20
-15.02141642384781
 30
0.0
 10
166.8788146066454
 20
-14.72103444561764
 30
0.0
 10
166.4857710085042
 20
-13.86965176395289
 30
0.0
 10
166.2427675521198
 20
-13.37838481873566
 30
0.0
 10
166.0295750093095
 20
-12.96151378117366
 30
0.0
  0
SPLINE
  5
E0
330
1B
100
AcDbEntity
  8
0
  6
Continuous
 62
     7
370
    15
100
AcDbSpline
210
0.0
220
0.0
230
1.0
 70
     8
 71
     3
 72
    10
 73
     6
 74
     0
 42
0.000000001
 43
0.00000001
 40
0.0
 40
0.0
 40
0.0
 40
0.0
 40
0.4155267960646397
 40
0.723947532001235
 40
1.0
 40
1.0
 40
1.0
 40
1.0
 10
166.0295750093095
 20
-12.96151378117365
 30
0.0
 10
165.7939340428173
 20
-12.61434565070109
 30
0.0
 10
165.3833908534346
 20
-12.00949534110517
 30
0.0
 10
165.0600495562539
 20
-11.5630548706889
 30
0.0
 10
165.0357403757466
 20
-11.52919961985293
 30
0.0
 10
165.0242589096521
 20
-11.51320945044044
 30
0.0
  0
SPLINE
  5
E1
330
1B
100
AcDbEntity
  8
0
  6
Continuous
 62
     7
370
    15
100
AcDbSpline
210
0.0
220
0.0
230
1.0
 70
     8
 71
     3
 72
    11
 73
     7
 74
     0
 42
0.000000001
 43
0.00000001
 40
0.0
 40
0.0
 40
0.0
 40
0.0
 40
0.0302798911768309
 40
0.3949139961826417
 40
0.7596305867833133
 40
1.0
 40
1.0
 40
1.0
 40
1.0
 10
167.2726460999387
 20
-54.41499275523046
 30
0.0
 10
167.2689949285688
 20
-54.42136289687181
 30
0.0
 10
167.2213759107857
 20
-54.50444305317576
 30
0.0
 10
167.5197324787432
 20
-53.98427045800975
 30
0.0
 10
168.1842465125249
 20
-52.78879280550605
 30
0.0
 10
168.7204167242066
 20
-51.65756230942997
 30
0.0
 10
168.9334094530967
 20
-51.20818286776516
 30
0.0
  0
LINE
  5
FA
330
1B
100
AcDbEntity
  8
0
  6
Continuous
 62
     7
370
    15
100
AcDbLine
 10
153.7868031566
 20
-169.781585738
 30
0.0
 11
289.1978691958
 21
-145.9049613088
 31
0.0
  0
LINE
  5
FB
330
1B
100
AcDbEntity
  8
0
  6
Continuous
 62
     7
370
    15
100
AcDbLine
 10
290.9358149166
 20
-143.2831577768
 30
0.0
 11
286.9135289978
 21
-125.7499853001
 31
0.0
  0
LINE
  5
FC
330
1B
100
AcDbEntity
  8
0
  6
Continuous
 62
     7
370
    15
100
AcDbLine
 10
149.0399730008
 20
-150.0608131486
 30
0.0
 11
151.2569587676
 21
-167.9123087504
 31
0.0
  0
LINE
  5
FD
330
1B
100
AcDbEntity
  8
0
  6
Continuous
 62
     7
370
    15
100
AcDbLine
 10
20.897879987
 20
-70.834627602
 30
0.0
 11
26.497879987
 21
-70.834627602
 31
0.0
  0
LINE
  5
FE
330
1B
100
AcDbEntity
  8
0
  6
Continuous
 62
     7
370
    15
100
AcDbLine
 10
-1.202120013
 20
-70.834627602
 30
0.0
 11
7.7828914345
 21
-70.834627602
 31
0.0
  0
LINE
  5
FF
330
1B
100
AcDbEntity
  8
0
  6
Continuous
 62
     7
370
    15
100
AcDbLine
 10
26.497879987
 20
4.165372398
 30
0.0
 11
-1.202120013
 21
4.165372398
 31
0.0
  0
LINE
  5
100
330
1B
100
AcDbEntity
  8
0
  6
Continuous
 62
     7
370
    15
100
AcDbLine
 10
226.0303308275
 20
-10.9032782565
 30
0.0
 11
218.2161628325
 21
33.413070629
 31
0.0
  0
LINE
  5
101
330
1B
100
AcDbEntity
  8
0
  6
Continuous
 62
     7
370
    15
100
AcDbLine
 10
159.1574098527
 20
22.9994190317
 30
0.0
 11
165.3146124967
 21
-11.9198123832
 31
0.0
  0
LINE
  5
102
330
1B
100
AcDbEntity
  8
0
  6
Continuous
 62
     7
370
    15
100
AcDbLine
 10
214.9561193338
 20
35.8725749427
 30
0.0
 11
161.3796486539
 21
26.4255976307
 31
0.0
  0
LINE
  5
103
330
1B
100
AcDbEntity
  8
0
  6
Continuous
 62
     7
370
    15
100
AcDbLine
 10
163.8042631709
 20
-54.616460299
 30
0.0
 11
167.2736467146
 21
-54.434637612
 31
0.0
  0
LINE
  5
104
330
1B
100
AcDbEntity
  8
0
  6
Continuous
 62
     7
370
    15
100
AcDbLine
 10
165.0232005961
 20
-11.4935676175
 30
0.0
 11
161.5538170524
 21
-11.6753903046
 31
0.0
  0
LINE
  5
105
330
1B
100
AcDbEntity
  8
0
  6
Continuous
 62
     7
370
    15
100
AcDbLine
 10
7.8559876212
 20
-70.8078763054
 30
0.0
 11
8.4516308945
 21
-75.6590014707
 31
0.0
  0
LINE
  5
106
330
1B
100
AcDbEntity
  8
0
  6
Continuous
 62
     7
370
    15
100
AcDbLine
 10
20.1441290794
 20
-75.6590014707
 30
0.0
 11
20.7398117803
 21
-70.8075551933
 31
0.0
  0
LINE
  5
107
330
1B
100
AcDbEntity
  8
0
  6
Continuous
 62
     7
370
    15
100
AcDbLine
 10
26.797879987
 20
-39.334627602
 30
0.0
 11
158.3334837186
 21
-39.334627602
 31
0.0
  0
LINE
  5
108
330
1B
100
AcDbEntity
  8
0
  6
Continuous
 62
     7
370
    15
100
AcDbLine
 10
158.3334837186
 20
-27.334627602
 30
0.0
 11
26.797879987
 21
-27.334627602
 31
0.0
  0
LINE
  5
109
330
1B
100
AcDbEntity
  8
0
  6
Continuous
 62
     7
370
    15
100
AcDbLine
 10
11.797879987
 20
-75.834627602
 30
0.0
 11
11.797879987
 21
-80.634627602
 31
0.0
  0
LINE
  5
10A
330
1B
100
AcDbEntity
  8
0
  6
Continuous
 62
     7
370
    15
100
AcDbLine
 10
16.797879987
 20
-80.634627602
 30
0.0
 11
16.797879987
 21
-75.834627602
 31
0.0
  0
LINE
  5
10B
330
1B
100
AcDbEntity
  8
0
  6
Continuous
 62
     7
370
    15
100
AcDbLine
 10
-1.202120013
 20
4.165372398
 30
0.0
 11
-1.202120013
 21
-70.834627602
 31
0.0
  0
LINE
  5
10C
330
1B
100
AcDbEntity
  8
0
  6
Continuous
 62
     7
370
    15
100
AcDbLine
 10
26.797879987
 20
3.865372398
 30
0.0
 11
26.797879987
 21
-70.5346275393
 31
0.0
  0
LINE
  5
10D
330
1B
100
AcDbEntity
  8
0
  6
Continuous
 62
     7
370
    15
100
AcDbLine
 10
13.2629779274
 20
-31.9682392095
 30
0.0
 11
14.2137560165
 21
-33.0542200374
 31
0.0
  0
LINE
  5
10E
330
1B
100
AcDbEntity
  8
0
  6
Continuous
 62
     7
370
    15
100
AcDbLine
 10
11.8471018978
 20
-32.2486467741
 30
0.0
 11
13.2629779274
 21
-31.9682392095
 31
0.0
  0
LINE
  5
10F
330
1B
100
AcDbEntity
  8
0
  6
Continuous
 62
     7
370
    15
100
AcDbLine
 10
11.3820039574
 20
-33.6150351667
 30
0.0
 11
11.8471018978
 21
-32.2486467741
 31
0.0
  0
LINE
  5
110
330
1B
100
AcDbEntity
  8
0
  6
Continuous
 62
     7
370
    15
100
AcDbLine
 10
12.3327820466
 20
-34.7010159945
 30
0.0
 11
11.3820039574
 21
-33.6150351667
 31
0.0
  0
LINE
  5
111
330
1B
100
AcDbEntity
  8
0
  6
Continuous
 62
     7
370
    15
100
AcDbLine
 10
13.7486580761
 20
-34.4206084299
 30
0.0
 11
12.3327820466
 21
-34.7010159945
 31
0.0
  0
LINE
  5
112
330
1B
100
AcDbEntity
  8
0
  6
Continuous
 62
     7
370
    15
100
AcDbLine
 10
14.2137560165
 20
-33.0542200374
 30
0.0
 11
13.7486580761
 21
-34.4206084299
 31
0.0
  0
LINE
  5
113
330
1B
100
AcDbEntity
  8
0
  6
Continuous
 62
     7
370
    15
100
AcDbLine
 10
170.568799991
 20
-40.3865924224
 30
0.0
 11
169.8331229042
 21
-26.3490373716
 31
0.0
  0
LINE
  5
114
330
1B
100
AcDbEntity
  8
0
  6
Continuous
 62
     7
370
    15
100
AcDbLine
 10
163.8042631709
 20
-54.616460299
 30
0.0
 11
163.1500637179
 21
-42.1335911146
 31
0.0
  0
LINE
  5
115
330
1B
100
AcDbEntity
  8
0
  6
Continuous
 62
     7
370
    15
100
AcDbLine
 10
163.2285676522
 20
-43.6315354167
 30
0.0
 11
170.4850528103
 21
-43.2512391442
 31
0.0
  0
LINE
  5
116
330
1B
100
AcDbEntity
  8
0
  6
Continuous
 62
     7
370
    15
100
AcDbLine
 10
162.2406840974
 20
-24.7815942751
 30
0.0
 11
161.5538170524
 21
-11.6753903046
 31
0.0
  0
LINE
  5
117
330
1B
100
AcDbEntity
  8
0
  6
Continuous
 62
     7
370
    15
100
AcDbLine
 10
162.1295125711
 20
-22.6603151869
 30
0.0
 11
169.2562739148
 21
-22.2868174513
 31
0.0
  0
LINE
  5
118
330
1B
100
AcDbEntity
  8
0
  6
Continuous
 62
     7
370
    15
100
AcDbLine
 10
11.8081157626
 20
-70.334627602
 30
0.0
 11
16.7366155933
 21
-70.334627602
 31
0.0
  0
LINE
  5
119
330
1B
100
AcDbEntity
  8
0
  6
Continuous
 62
     7
370
    15
100
AcDbLine
 10
19.9456198491
 20
-75.834627602
 30
0.0
 11
8.6501408051
 21
-75.834627602
 31
0.0
  0
LINE
  5
11A
330
1B
100
AcDbEntity
  8
0
  6
Continuous
 62
     7
370
    15
100
AcDbLine
 10
16.597879987
 20
-80.834627602
 30
0.0
 11
11.997879987
 21
-80.834627602
 31
0.0
  0
LINE
  5
11B
330
1B
100
AcDbEntity
  8
0
  6
Continuous
 62
     8
370
    15
100
AcDbLine
 10
290.9358149166
 20
-143.2831577768
 30
0.0
 11
151.2569587676
 21
-167.9123087504
 31
0.0
  0
LINE
  5
11C
330
1B
100
AcDbEntity
  8
0
  6
Continuous
 62
     8
370
    15
100
AcDbLine
 10
286.9135289978
 20
-125.7499853001
 30
0.0
 11
149.0399730008
 21
-150.0608131486
 31
0.0
  0
LINE
  5
11D
330
1B
100
AcDbEntity
  8
0
  6
Continuous
 62
     8
370
    15
100
AcDbLine
 10
255.5497880368
 20
-68.3555297924
 30
0.0
 11
158.8821890432
 21
-85.4006356553
 31
0.0
  0
LINE
  5
11E
330
1B
100
AcDbEntity
  8
0
  6
Continuous
 62
     8
370
    15
100
AcDbLine
 10
226.0303308275
 20
-10.9032782565
 30
0.0
 11
168.9987452196
 21
-20.9594855518
 31
0.0
  0
LINE
  5
11F
330
1B
100
AcDbEntity
  8
0
  6
Continuous
 62
     8
370
    15
100
AcDbLine
 10
26.497879987
 20
-70.834627602
 30
0.0
 11
26.497879987
 21
4.165372398
 31
0.0
  0
LINE
  5
120
330
1B
100
AcDbEntity
  8
0
  6
Continuous
 62
     8
370
    15
100
AcDbLine
 10
218.2161628325
 20
33.413070629
 30
0.0
 11
159.1574098527
 21
22.9994190317
 31
0.0
  0
LINE
  5
121
330
1B
100
AcDbEntity
  8
0
  6
Continuous
 62
     8
370
    15
100
AcDbLine
 10
215.0637814805
 20
35.8855877366
 30
0.0
 11
161.2740286916
 21
26.4010030342
 31
0.0
  0
LINE
  5
122
330
1B
100
AcDbEntity
  8
0
  6
Continuous
 62
     8
370
    15
100
AcDbLine
 10
8.4516308945
 20
-75.6590014707
 30
0.0
 11
20.1441290794
 21
-75.6590014707
 31
0.0
  0
LINE
  5
123
330
1B
100
AcDbEntity
  8
0
  6
Continuous
 62
     8
370
    15
100
AcDbLine
 10
11.797879987
 20
-80.634627602
 30
0.0
 11
16.797879987
 21
-80.634627602
 31
0.0
  0
ARC
  5
124
330
1B
100
AcDbEntity
  8
0
  6
Continuous
 62
     7
370
    15
100
AcDbCircle
 10
288.8211165415
 20
-143.7682908301
 30
0.0
 40
2.169632064894688
100
AcDbArc
 50
280.0
 51
12.9206568295
  0
ARC
  5
125
330
1B
100
AcDbEntity
  8
0
  6
Continuous
 62
     7
370
    15
100
AcDbCircle
 10
153.4100505023
 20
-167.6449152593
 30
0.0
 40
2.169632064894668
100
AcDbArc
 50
187.0793431705
 51
280.0
  0
ARC
  5
126
330
1B
100
AcDbEntity
  8
0
  6
Continuous
 62
     7
370
    15
100
AcDbCircle
 10
268.7163767429
 20
-135.1981433959
 30
0.0
 40
120.5957734119547
100
AcDbArc
 50
155.6110285588
 51
187.0793431705
  0
ARC
  5
127
330
1B
100
AcDbEntity
  8
0
  6
Continuous
 62
     7
370
    15
100
AcDbCircle
 10
169.3711630801
 20
-152.7153849689
 30
0.0
 40
120.5957734119548
100
AcDbArc
 50
12.9206568295
 51
44.3889714412
  0
ARC
  5
128
330
1B
100
AcDbEntity
  8
0
  6
Continuous
 62
     7
370
    15
100
AcDbCircle
 10
333.6208044788
 20
8.0678251154
 30
0.0
 40
109.2502301309285
100
AcDbArc
 50
190.0
 51
224.3889714412
  0
ARC
  5
129
330
1B
100
AcDbEntity
  8
0
  6
Continuous
 62
     7
370
    15
100
AcDbCircle
 10
59.3811041964
 20
-40.2880332258
 30
0.0
 40
109.2502301309295
100
AcDbArc
 50
335.6110285588
 51
352.8815359195
  0
ARC
  5
12A
330
1B
100
AcDbEntity
  8
0
  6
Continuous
 62
     7
370
    15
100
AcDbCircle
 10
26.497879987
 20
3.865372398
 30
0.0
 40
0.3000000000000256
100
AcDbArc
 50
0.0
 51
90.0
  0
ARC
  5
12B
330
1B
100
AcDbEntity
  8
0
  6
Continuous
 62
     7
370
    15
100
AcDbCircle
 10
26.497879987
 20
-70.534627602
 30
0.0
 40
0.3000000000000043
100
AcDbArc
 50
270.0
 51
360.0
  0
ARC
  5
12C
330
1B
100
AcDbEntity
  8
0
  6
Continuous
 62
     7
370
    15
100
AcDbCircle
 10
215.2617395735
 20
32.892126096
 30
0.0
 40
2.999999999999995
100
AcDbArc
 50
10.0
 51
93.7834701144
  0
ARC
  5
12D
330
1B
100
AcDbEntity
  8
0
  6
Continuous
 62
     7
370
    15
100
AcDbCircle
 10
162.1118331117
 20
23.5203635647
 30
0.0
 40
2.999999999999966
100
AcDbArc
 50
106.2165298856
 51
190.0
  0
ARC
  5
12E
330
1B
100
AcDbEntity
  8
0
  6
Continuous
 62
     7
370
    15
100
AcDbCircle
 10
215.1297675115
 20
34.8877671897
 30
0.0
 40
0.9999999999988283
100
AcDbArc
 50
93.7834701144
 51
100.0
  0
ARC
  5
12F
330
1B
100
AcDbEntity
  8
0
  6
Continuous
 62
     7
370
    15
100
AcDbCircle
 10
161.5532968316
 20
25.4407898777
 30
0.0
 40
0.9999999999961993
100
AcDbArc
 50
100.0
 51
106.2165298856
  0
ARC
  5
130
330
1B
100
AcDbEntity
  8
0
  6
Continuous
 62
     7
370
    15
100
AcDbCircle
 10
19.9456198491
 20
-75.634627602
 30
0.0
 40
0.2000000000000206
100
AcDbArc
 50
270.0
 51
353.0
  0
ARC
  5
131
330
1B
100
AcDbEntity
  8
0
  6
Continuous
 62
     7
370
    15
100
AcDbCircle
 10
8.6501401249
 20
-75.634627602
 30
0.0
 40
0.2000000000000153
100
AcDbArc
 50
187.0
 51
270.0
  0
ARC
  5
132
330
1B
100
AcDbEntity
  8
0
  6
Continuous
 62
     7
370
    15
100
AcDbCircle
 10
16.597879987
 20
-80.634627602
 30
0.0
 40
0.2000000000000064
100
AcDbArc
 50
270.0
 51
0.0
  0
ARC
  5
133
330
1B
100
AcDbEntity
  8
0
  6
Continuous
 62
     7
370
    15
100
AcDbCircle
 10
11.997879987
 20
-80.634627602
 30
0.0
 40
0.2000000000000171
100
AcDbArc
 50
180.0
 51
270.0
  0
ARC
  5
134
330
1B
100
AcDbEntity
  8
0
  6
Continuous
 62
     7
370
    15
100
AcDbCircle
 10
12.797879987
 20
-33.334627602
 30
0.0
 40
3.765000000000038
100
AcDbArc
 50
26.7592642144
 51
153.0800524775
  0
ARC
  5
135
330
1B
100
AcDbEntity
  8
0
  6
Continuous
 62
     7
370
    15
100
AcDbCircle
 10
12.797879987
 20
-33.334627602
 30
0.0
 40
3.76500000000001
100
AcDbArc
 50
206.9478728492
 51
333.2014228003
  0
ARC
  5
136
330
1B
100
AcDbEntity
  8
0
  6
Continuous
 62
     7
370
    15
100
AcDbCircle
 10
12.797879987
 20
-33.334627602
 30
0.0
 40
1.25000000000008
100
AcDbArc
 50
281.20220248
 51
221.20220248
  0
ARC
  5
137
330
1B
100
AcDbEntity
  8
0
  6
Continuous
 62
     7
370
    15
100
AcDbCircle
 10
165.0416876511
 20
-33.334627602
 30
0.0
 40
9.000000000000007
100
AcDbArc
 50
108.1329265216
 51
257.8670734784
  0
VIEWPORT
  5
2C5
330
1B
100
AcDbEntity
  8
0
100
AcDbViewport
 10
0.0
 20
0.0
 30
0.0
 40
205.6
 41
156.0
 68
     1
 69
     1
 12
-7.0067927147
 22
-66.947467909
 13
0.0
 23
0.0
 14
10.0
 24
10.0
 15
10.0
 25
10.0
 16
0.0
 26
0.0
 36
1.0
 17
0.0
 27
0.0
 37
0.0
 42
50.0
 43
0.0
 44
0.0
 45
209.8484491495
 50
0.0
 51
0.0
 72
   100
 90
   557152
  1

281
     0
 71
     1
 74
     0
110
0.0
120
0.0
130
0.0
111
1.0
121
0.0
131
0.0
112
0.0
122
1.0
132
0.0
 79
     0
146
0.0
  0
ENDBLK
  5
1D
330
1B
100
AcDbEntity
  8
0
100
AcDbBlockEnd
  0
BLOCK
  5
24
330
23
100
AcDbEntity
  8
0
100
AcDbBlockBegin
  2
*Paper_Space1
 70
     0
 10
0.0
 20
0.0
 30
0.0
  3
*Paper_Space1
  1
*Paper_Space1
  0
SPLINE
  5
159
330
23
100
AcDbEntity
  8
0
  6
Continuous
 62
     7
370
    15
100
AcDbSpline
210
0.0
220
0.0
230
1.0
 70
     8
 71
     3
 72
    10
 73
     6
 74
     0
 42
0.000000001
 43
0.00000001
 40
0.0
 40
0.0
 40
0.0
 40
0.0
 40
0.5
 40
0.5
 40
1.0
 40
1.0
 40
1.0
 40
1.0
 10
-170.568799990965
 20
-40.38659242235092
 30
0.0
 10
-170.5613552124057
 20
-40.86474068703973
 30
0.0
 10
-170.5506227714641
 20
-41.34317361781153
 30
0.0
 10
-170.5226831819859
 20
-42.29814251409774
 30
0.0
 10
-170.5054722631072
 20
-42.77500077468542
 30
0.0
 10
-170.4850528102744
 20
-43.25123914416528
 30
0.0
  0
SPLINE
  5
15A
330
23
100
AcDbEntity
  8
0
  6
Continuous
 62
     7
370
    15
100
AcDbSpline
210
0.0
220
0.0
230
1.0
 70
     8
 71
     3
 72
    18
 73
    14
 74
     0
 42
0.000000001
 43
0.00000001
 40
0.0
 40
0.0
 40
0.0
 40
0.0
 40
0.2499999999999969
 40
0.2499999999999969
 40
0.3749999999999971
 40
0.3749999999999971
 40
0.4999999999999973
 40
0.4999999999999973
 40
0.6249999999999974
 40
0.6249999999999974
 40
0.7499999999999977
 40
0.7499999999999977
 40
1.0
 40
1.0
 40
1.0
 40
1.0
 10
-170.4850528102743
 20
-43.25123914416528
 30
0.0
 10
-170.4529618181646
 20
-43.99969023550838
 30
0.0
 10
-170.3864120456686
 20
-44.73890179898812
 30
0.0
 10
-170.2416489513044
 20
-45.83464280081559
 30
0.0
 10
-170.1856271356012
 20
-46.19885159604581
 30
0.0
 10
-170.0627656127956
 20
-46.90700841332244
 30
0.0
 10
-169.9957214019391
 20
-47.25289899339399
 30
0.0
 10
-169.8525696065935
 20
-47.92917157793939
 30
0.0
 10
-169.7764584181525
 20
-48.2595518503771
 30
0.0
 10
-169.6171508287617
 20
-48.90514217782584
 30
0.0
 10
-169.5335147064025
 20
-49.22184418366482
 30
0.0
 10
-169.2791244802085
 20
-50.13400252521016
 30
0.0
 10
-169.1046411489495
 20
-50.69410343534979
 30
0.0
 10
-168.9334094530861
 20
-51.20818286778847
 30
0.0
  0
SPLINE
  5
15B
330
23
100
AcDbEntity
  8
0
  6
Continuous
 62
     7
370
    15
100
AcDbSpline
210
0.0
220
0.0
230
1.0
 70
     8
 71
     3
 72
     9
 73
     5
 74
     0
 42
0.000000001
 43
0.00000001
 40
0.0
 40
0.0
 40
0.0
 40
0.0
 40
0.5
 40
1.0
 40
1.0
 40
1.0
 40
1.0
 10
-169.2562739148336
 20
-22.2868174513489
 30
0.0
 10
-169.3662163541727
 20
-22.96278959588943
 30
0.0
 10
-169.5722513337173
 20
-24.31580217009007
 30
0.0
 10
-169.7507351933978
 20
-25.67093984650899
 30
0.0
 10
-169.8331229041936
 20
-26.34903737161649
 30
0.0
  0
SPLINE
  5
15C
330
23
100
AcDbEntity
  8
0
  6
Continuous
 62
     7
370
    15
100
AcDbSpline
210
0.0
220
0.0
230
1.0
 70
     8
 71
     3
 72
     8
 73
     4
 74
     0
 42
0.000000001
 43
0.00000001
 40
0.0
 40
0.0
 40
0.0
 40
0.0
 40
1.0
 40
1.0
 40
1.0
 40
1.0
 10
-168.9987452195548
 20
-20.95948555179243
 30
0.0
 10
-169.0969720627504
 20
-21.39503965446214
 30
0.0
 10
-169.183165708119
 20
-21.83731758966266
 30
0.0
 10
-169.2562739148336
 20
-22.2868174513489
 30
0.0
  0
CIRCLE
  5
163
330
23
100
AcDbEntity
  8
0
  6
Continuous
 62
     7
370
    15
100
AcDbCircle
 10
-12.797879987
 20
-33.334627602
 30
0.0
 40
3.764999999999994
  0
SPLINE
  5
16D
330
23
100
AcDbEntity
  8
0
  6
Continuous
 62
     7
370
    15
100
AcDbSpline
210
0.0
220
0.0
230
1.0
 70
     8
 71
     3
 72
    18
 73
    14
 74
     0
 42
0.000000001
 43
0.00000001
 40
0.0
 40
0.0
 40
0.0
 40
0.0
 40
0.2499999999999998
 40
0.2499999999999998
 40
0.3749999999999998
 40
0.3749999999999998
 40
0.4999999999999999
 40
0.4999999999999999
 40
0.6249999999999999
 40
0.6249999999999999
 40
0.75
 40
0.75
 40
1.0
 40
1.0
 40
1.0
 40
1.0
 10
-166.0295750093084
 20
-12.96151378117207
 30
0.0
 10
-166.2450243330513
 20
-13.38279766824794
 30
0.0
 10
-166.4891747880955
 20
-13.87693167995935
 30
0.0
 10
-166.8786558096992
 20
-14.72073730118403
 30
0.0
 10
-167.013198796065
 20
-15.0211167418689
 30
0.0
 10
-167.2842049183746
 20
-15.65068533793305
 30
0.0
 10
-167.4199622936138
 20
-15.97813419427445
 30
0.0
 10
-167.6891748546885
 20
-16.65847990139623
 30
0.0
 10
-167.8226368309518
 20
-17.01137606211267
 30
0.0
 10
-168.0845428944624
 20
-17.74386882602828
 30
0.0
 10
-168.2136022653702
 20
-18.12542490604144
 30
0.0
 10
-168.5845084080179
 20
-19.29941480116877
 30
0.0
 10
-168.8077327055539
 20
-20.11250440663928
 30
0.0
 10
-168.9987452195553
 20
-20.95948555179234
 30
0.0
  0
SPLINE
  5
16E
330
23
100
AcDbEntity
  8
0
  6
Continuous
 62
     7
370
    15
100
AcDbSpline
210
0.0
220
0.0
230
1.0
 70
     8
 71
     3
 72
    10
 73
     6
 74
     0
 42
0.000000001
 43
0.00000001
 40
0.0
 40
0.0
 40
0.0
 40
0.0
 40
0.0446212253744916
 40
0.581955408105658
 40
1.0
 40
1.0
 40
1.0
 40
1.0
 10
-165.0242589096521
 20
-11.51320945044045
 30
0.0
 10
-165.0199763355201
 20
-11.50728890463262
 30
0.0
 10
-164.9641224866894
 20
-11.43007243146583
 30
0.0
 10
-165.265412469518
 20
-11.83611315850304
 30
0.0
 10
-165.796978109565
 20
-12.618962710985
 30
0.0
 10
-166.0295750093084
 20
-12.96151378117207
 30
0.0
  0
SPLINE
  5
170
330
23
100
AcDbEntity
  8
0
  6
Continuous
 62
     7
370
    15
100
AcDbSpline
210
0.0
220
0.0
230
1.0
 70
     8
 71
     3
 72
    12
 73
     8
 74
     0
 42
0.000000001
 43
0.00000001
 40
0.0
 40
0.0
 40
0.0
 40
0.0
 40
0.1250786069015172
 40
0.3600884628964956
 40
0.6035339203763335
 40
0.8127451540618239
 40
1.0
 40
1.0
 40
1.0
 40
1.0
 10
-168.9334094530861
 20
-51.20818286778838
 30
0.0
 10
-168.8223949591092
 20
-51.44734572186272
 30
0.0
 10
-168.5027956328486
 20
-52.13587101518789
 30
0.0
 10
-168.0060440679294
 20
-53.09764127175422
 30
0.0
 10
-167.5677645669967
 20
-53.89799823051419
 30
0.0
 10
-167.3019209227502
 20
-54.3643398460644
 30
0.0
 10
-167.2820373213175
 20
-54.3987435472839
 30
0.0
 10
-167.2726460999387
 20
-54.41499275523046
 30
0.0
  0
LINE
  5
184
330
23
100
AcDbEntity
  8
0
  6
Continuous
 62
     7
370
    15
100
AcDbLine
 10
-289.1978691958
 20
-145.9049613088
 30
0.0
 11
-153.7868031566
 21
-169.781585738
 31
0.0
  0
LINE
  5
185
330
23
100
AcDbEntity
  8
0
  6
Continuous
 62
     7
370
    15
100
AcDbLine
 10
-151.2569587676
 20
-167.9123087504
 30
0.0
 11
-149.0399730008
 21
-150.0608131486
 31
0.0
  0
LINE
  5
186
330
23
100
AcDbEntity
  8
0
  6
Continuous
 62
     7
370
    15
100
AcDbLine
 10
-286.9135289978
 20
-125.7499853001
 30
0.0
 11
-290.9358149166
 21
-143.2831577768
 31
0.0
  0
LINE
  5
187
330
23
100
AcDbEntity
  8
0
  6
Continuous
 62
     7
370
    15
100
AcDbLine
 10
1.202120013
 20
4.165372398
 30
0.0
 11
-26.497879987
 21
4.165372398
 31
0.0
  0
LINE
  5
188
330
23
100
AcDbEntity
  8
0
  6
Continuous
 62
     7
370
    15
100
AcDbLine
 10
-7.7828914345
 20
-70.834627602
 30
0.0
 11
1.202120013
 21
-70.834627602
 31
0.0
  0
LINE
  5
189
330
23
100
AcDbEntity
  8
0
  6
Continuous
 62
     7
370
    15
100
AcDbLine
 10
-26.497879987
 20
-70.834627602
 30
0.0
 11
-20.897879987
 21
-70.834627602
 31
0.0
  0
LINE
  5
18A
330
23
100
AcDbEntity
  8
0
  6
Continuous
 62
     7
370
    15
100
AcDbLine
 10
-165.3146715104
 20
-11.9201470667
 30
0.0
 11
-159.1574098527
 21
22.9994190317
 31
0.0
  0
LINE
  5
18B
330
23
100
AcDbEntity
  8
0
  6
Continuous
 62
     7
370
    15
100
AcDbLine
 10
-218.2161628325
 20
33.413070629
 30
0.0
 11
-226.0303308275
 21
-10.9032782565
 31
0.0
  0
LINE
  5
18C
330
23
100
AcDbEntity
  8
0
  6
Continuous
 62
     7
370
    15
100
AcDbLine
 10
-161.3796486539
 20
26.4255976307
 30
0.0
 11
-214.9561193338
 21
35.8725749427
 31
0.0
  0
LINE
  5
18D
330
23
100
AcDbEntity
  8
0
  6
Continuous
 62
     7
370
    15
100
AcDbLine
 10
-167.2736467146
 20
-54.434637612
 30
0.0
 11
-163.8042631709
 21
-54.616460299
 31
0.0
  0
LINE
  5
18E
330
23
100
AcDbEntity
  8
0
  6
Continuous
 62
     7
370
    15
100
AcDbLine
 10
-161.5538170524
 20
-11.6753903046
 30
0.0
 11
-165.0232005961
 21
-11.4935676175
 31
0.0
  0
LINE
  5
18F
330
23
100
AcDbEntity
  8
0
  6
Continuous
 62
     7
370
    15
100
AcDbLine
 10
-20.7398537318
 20
-70.8072135258
 30
0.0
 11
-20.1441290794
 21
-75.6590014707
 31
0.0
  0
LINE
  5
190
330
23
100
AcDbEntity
  8
0
  6
Continuous
 62
     7
370
    15
100
AcDbLine
 10
-8.4516308945
 20
-75.6590014707
 30
0.0
 11
-7.8563391522
 21
-70.8107392953
 31
0.0
  0
LINE
  5
191
330
23
100
AcDbEntity
  8
0
  6
Continuous
 62
     7
370
    15
100
AcDbLine
 10
-26.797879987
 20
-27.334627602
 30
0.0
 11
-158.3334837186
 21
-27.334627602
 31
0.0
  0
LINE
  5
192
330
23
100
AcDbEntity
  8
0
  6
Continuous
 62
     7
370
    15
100
AcDbLine
 10
-158.3334837186
 20
-39.334627602
 30
0.0
 11
-26.797879987
 21
-39.334627602
 31
0.0
  0
LINE
  5
193
330
23
100
AcDbEntity
  8
0
  6
Continuous
 62
     7
370
    15
100
AcDbLine
 10
-16.797879987
 20
-75.834627602
 30
0.0
 11
-16.797879987
 21
-80.634627602
 31
0.0
  0
LINE
  5
194
330
23
100
AcDbEntity
  8
0
  6
Continuous
 62
     7
370
    15
100
AcDbLine
 10
-11.797879987
 20
-80.634627602
 30
0.0
 11
-11.797879987
 21
-75.834627602
 31
0.0
  0
LINE
  5
195
330
23
100
AcDbEntity
  8
0
  6
Continuous
 62
     7
370
    15
100
AcDbLine
 10
-14.2179676
 20
-33.5928610324
 30
0.0
 11
-13.7315605043
 21
-32.2339123687
 31
0.0
  0
LINE
  5
196
330
23
100
AcDbEntity
  8
0
  6
Continuous
 62
     7
370
    15
100
AcDbLine
 10
-13.2842870827
 20
-34.6935762657
 30
0.0
 11
-14.2179676
 21
-33.5928610324
 31
0.0
  0
LINE
  5
197
330
23
100
AcDbEntity
  8
0
  6
Continuous
 62
     7
370
    15
100
AcDbLine
 10
-11.8641994696
 20
-34.4353428353
 30
0.0
 11
-13.2842870827
 21
-34.6935762657
 31
0.0
  0
LINE
  5
198
330
23
100
AcDbEntity
  8
0
  6
Continuous
 62
     7
370
    15
100
AcDbLine
 10
-11.3777923739
 20
-33.0763941716
 30
0.0
 11
-11.8641994696
 21
-34.4353428353
 31
0.0
  0
LINE
  5
199
330
23
100
AcDbEntity
  8
0
  6
Continuous
 62
     7
370
    15
100
AcDbLine
 10
-12.3114728913
 20
-31.9756789383
 30
0.0
 11
-11.3777923739
 21
-33.0763941716
 31
0.0
  0
LINE
  5
19A
330
23
100
AcDbEntity
  8
0
  6
Continuous
 62
     7
370
    15
100
AcDbLine
 10
-13.7315605043
 20
-32.2339123687
 30
0.0
 11
-12.3114728913
 21
-31.9756789383
 31
0.0
  0
LINE
  5
19B
330
23
100
AcDbEntity
  8
0
  6
Continuous
 62
     7
370
    15
100
AcDbLine
 10
1.202120013
 20
-70.834627602
 30
0.0
 11
1.202120013
 21
4.165372398
 31
0.0
  0
LINE
  5
19C
330
23
100
AcDbEntity
  8
0
  6
Continuous
 62
     7
370
    15
100
AcDbLine
 10
-26.797879987
 20
3.865372398
 30
0.0
 11
-26.797879987
 21
-70.534627602
 31
0.0
  0
LINE
  5
19D
330
23
100
AcDbEntity
  8
0
  6
Continuous
 62
     7
370
    15
100
AcDbLine
 10
-169.8331229042
 20
-26.3490373716
 30
0.0
 11
-170.568799991
 21
-40.3865924224
 31
0.0
  0
LINE
  5
19E
330
23
100
AcDbEntity
  8
0
  6
Continuous
 62
     7
370
    15
100
AcDbLine
 10
-163.1500637179
 20
-42.1335911146
 30
0.0
 11
-163.8042631709
 21
-54.616460299
 31
0.0
  0
LINE
  5
19F
330
23
100
AcDbEntity
  8
0
  6
Continuous
 62
     7
370
    15
100
AcDbLine
 10
-163.2285676522
 20
-43.6315354167
 30
0.0
 11
-170.4850528103
 21
-43.2512391442
 31
0.0
  0
LINE
  5
1A0
330
23
100
AcDbEntity
  8
0
  6
Continuous
 62
     7
370
    15
100
AcDbLine
 10
-161.5538170524
 20
-11.6753903046
 30
0.0
 11
-162.2406840974
 21
-24.7815942751
 31
0.0
  0
LINE
  5
1A1
330
23
100
AcDbEntity
  8
0
  6
Continuous
 62
     7
370
    15
100
AcDbLine
 10
-162.1295125711
 20
-22.6603151869
 30
0.0
 11
-169.2562739148
 21
-22.2868174513
 31
0.0
  0
LINE
  5
1A2
330
23
100
AcDbEntity
  8
0
  6
Continuous
 62
     7
370
    15
100
AcDbLine
 10
-16.7101570076
 20
-70.334627602
 30
0.0
 11
-11.8341201551
 21
-70.334627602
 31
0.0
  0
LINE
  5
1A3
330
23
100
AcDbEntity
  8
0
  6
Continuous
 62
     7
370
    15
100
AcDbLine
 10
-8.6501408051
 20
-75.834627602
 30
0.0
 11
-19.9456198491
 21
-75.834627602
 31
0.0
  0
LINE
  5
1A4
330
23
100
AcDbEntity
  8
0
  6
Continuous
 62
     7
370
    15
100
AcDbLine
 10
-11.997880264
 20
-80.834627602
 30
0.0
 11
-16.597879987
 21
-80.834627602
 31
0.0
  0
LINE
  5
1A5
330
23
100
AcDbEntity
  8
0
  6
Continuous
 62
     8
370
    15
100
AcDbLine
 10
-151.2569587676
 20
-167.9123087504
 30
0.0
 11
-290.9358149166
 21
-143.2831577768
 31
0.0
  0
LINE
  5
1A6
330
23
100
AcDbEntity
  8
0
  6
Continuous
 62
     8
370
    15
100
AcDbLine
 10
-149.0399730008
 20
-150.0608131486
 30
0.0
 11
-286.9135289978
 21
-125.7499853001
 31
0.0
  0
LINE
  5
1A7
330
23
100
AcDbEntity
  8
0
  6
Continuous
 62
     8
370
    15
100
AcDbLine
 10
-158.8821890432
 20
-85.4006356553
 30
0.0
 11
-255.5497880368
 21
-68.3555297924
 31
0.0
  0
LINE
  5
1A8
330
23
100
AcDbEntity
  8
0
  6
Continuous
 62
     8
370
    15
100
AcDbLine
 10
-168.9987452196
 20
-20.9594855518
 30
0.0
 11
-226.0303308275
 21
-10.9032782565
 31
0.0
  0
LINE
  5
1A9
330
23
100
AcDbEntity
  8
0
  6
Continuous
 62
     8
370
    15
100
AcDbLine
 10
-26.497879987
 20
4.165372398
 30
0.0
 11
-26.497879987
 21
-70.834627602
 31
0.0
  0
LINE
  5
1AA
330
23
100
AcDbEntity
  8
0
  6
Continuous
 62
     8
370
    15
100
AcDbLine
 10
-159.1574098527
 20
22.9994190317
 30
0.0
 11
-218.2161628325
 21
33.413070629
 31
0.0
  0
LINE
  5
1AB
330
23
100
AcDbEntity
  8
0
  6
Continuous
 62
     8
370
    15
100
AcDbLine
 10
-161.2740286916
 20
26.4010030342
 30
0.0
 11
-215.0637814805
 21
35.8855877366
 31
0.0
  0
LINE
  5
1AC
330
23
100
AcDbEntity
  8
0
  6
Continuous
 62
     8
370
    15
100
AcDbLine
 10
-20.1441290794
 20
-75.6590014707
 30
0.0
 11
-8.4516308945
 21
-75.6590014707
 31
0.0
  0
LINE
  5
1AD
330
23
100
AcDbEntity
  8
0
  6
Continuous
 62
     8
370
    15
100
AcDbLine
 10
-16.797879987
 20
-80.634627602
 30
0.0
 11
-11.797879987
 21
-80.634627602
 31
0.0
  0
ARC
  5
1AE
330
23
100
AcDbEntity
  8
0
  6
Continuous
 62
     7
370
    15
100
AcDbCircle
 10
-153.4100505023
 20
-167.6449152593
 30
0.0
 40
2.169632064894668
100
AcDbArc
 50
260.0
 51
352.9206568295
  0
ARC
  5
1AF
330
23
100
AcDbEntity
  8
0
  6
Continuous
 62
     7
370
    15
100
AcDbCircle
 10
-288.8211165415
 20
-143.7682908301
 30
0.0
 40
2.169632064894661
100
AcDbArc
 50
167.0793431705
 51
260.0
  0
ARC
  5
1B0
330
23
100
AcDbEntity
  8
0
  6
Continuous
 62
     7
370
    15
100
AcDbCircle
 10
-169.3711630801
 20
-152.7153849689
 30
0.0
 40
120.5957734119556
100
AcDbArc
 50
135.6110285588
 51
167.0793431705
  0
ARC
  5
1B1
330
23
100
AcDbEntity
  8
0
  6
Continuous
 62
     7
370
    15
100
AcDbCircle
 10
-268.7163767429
 20
-135.1981433959
 30
0.0
 40
120.5957734119559
100
AcDbArc
 50
352.9206568295
 51
24.3889714412
  0
ARC
  5
1B2
330
23
100
AcDbEntity
  8
0
  6
Continuous
 62
     7
370
    15
100
AcDbCircle
 10
-59.3811041964
 20
-40.2880332258
 30
0.0
 40
109.2502301309242
100
AcDbArc
 50
187.0567979354
 51
204.3889714412
  0
ARC
  5
1B3
330
23
100
AcDbEntity
  8
0
  6
Continuous
 62
     7
370
    15
100
AcDbCircle
 10
-333.6208044788
 20
8.0678251154
 30
0.0
 40
109.2502301309297
100
AcDbArc
 50
315.6110285588
 51
350.0
  0
ARC
  5
1B4
330
23
100
AcDbEntity
  8
0
  6
Continuous
 62
     7
370
    15
100
AcDbCircle
 10
-26.497879987
 20
-70.534627602
 30
0.0
 40
0.2999999999999972
100
AcDbArc
 50
180.0
 51
270.0
  0
ARC
  5
1B5
330
23
100
AcDbEntity
  8
0
  6
Continuous
 62
     7
370
    15
100
AcDbCircle
 10
-26.497879987
 20
3.865372398
 30
0.0
 40
0.3000000000000256
100
AcDbArc
 50
90.0
 51
180.0
  0
ARC
  5
1B6
330
23
100
AcDbEntity
  8
0
  6
Continuous
 62
     7
370
    15
100
AcDbCircle
 10
-162.1118331117
 20
23.5203635647
 30
0.0
 40
2.999999999999966
100
AcDbArc
 50
350.0
 51
73.7834701144
  0
ARC
  5
1B7
330
23
100
AcDbEntity
  8
0
  6
Continuous
 62
     7
370
    15
100
AcDbCircle
 10
-215.2617395735
 20
32.892126096
 30
0.0
 40
2.999999999999968
100
AcDbArc
 50
86.2165298856
 51
170.0
  0
ARC
  5
1B8
330
23
100
AcDbEntity
  8
0
  6
Continuous
 62
     7
370
    15
100
AcDbCircle
 10
-161.5532968316
 20
25.4407898777
 30
0.0
 40
0.9999999999993359
100
AcDbArc
 50
73.7834701144
 51
80.0
  0
ARC
  5
1B9
330
23
100
AcDbEntity
  8
0
  6
Continuous
 62
     7
370
    15
100
AcDbCircle
 10
-215.1297675115
 20
34.8877671897
 30
0.0
 40
0.9999999999975744
100
AcDbArc
 50
80.0
 51
86.2165298856
  0
ARC
  5
1BA
330
23
100
AcDbEntity
  8
0
  6
Continuous
 62
     7
370
    15
100
AcDbCircle
 10
-8.6501401249
 20
-75.634627602
 30
0.0
 40
0.1999999999999889
100
AcDbArc
 50
270.0
 51
353.0
  0
ARC
  5
1BB
330
23
100
AcDbEntity
  8
0
  6
Continuous
 62
     7
370
    15
100
AcDbCircle
 10
-19.9456198491
 20
-75.634627602
 30
0.0
 40
0.2000000000000488
100
AcDbArc
 50
187.0
 51
270.0
  0
ARC
  5
1BC
330
23
100
AcDbEntity
  8
0
  6
Continuous
 62
     7
370
    15
100
AcDbCircle
 10
-11.997879987
 20
-80.634627602
 30
0.0
 40
0.2000000000000028
100
AcDbArc
 50
270.0
 51
0.0
  0
ARC
  5
1BD
330
23
100
AcDbEntity
  8
0
  6
Continuous
 62
     7
370
    15
100
AcDbCircle
 10
-16.597879987
 20
-80.634627602
 30
0.0
 40
0.2000000000000313
100
AcDbArc
 50
180.0
 51
270.0
  0
ARC
  5
1BE
330
23
100
AcDbEntity
  8
0
  6
Continuous
 62
     7
370
    15
100
AcDbCircle
 10
-14.2983047409
 20
-108.0247913688
 30
0.0
 40
37.7711884169227
100
AcDbArc
 50
80.066973447
 51
100.0626619111
  0
ARC
  5
1BF
330
23
100
AcDbEntity
  8
0
  6
Continuous
 62
     7
370
    15
100
AcDbCircle
 10
-12.797879987
 20
-33.334627602
 30
0.0
 40
1.25000000000002
100
AcDbArc
 50
220.3062400653
 51
160.3062400653
  0
ARC
  5
1C0
330
23
100
AcDbEntity
  8
0
  6
Continuous
 62
     7
370
    15
100
AcDbCircle
 10
-165.0416876511
 20
-33.334627602
 30
0.0
 40
9.000000000000002
100
AcDbArc
 50
282.1329265216
 51
71.8670734784
  0
VIEWPORT
  5
2C7
330
23
100
AcDbEntity
  8
0
100
AcDbViewport
 10
0.0
 20
0.0
 30
0.0
 40
205.6
 41
156.0
 68
     1
 69
     1
 12
-7.0067927147
 22
-66.947467909
 13
0.0
 23
0.0
 14
10.0
 24
10.0
 15
10.0
 25
10.0
 16
0.0
 26
0.0
 36
1.0
 17
0.0
 27
0.0
 37
0.0
 42
50.0
 43
0.0
 44
0.0
 45
209.8484491495
 50
0.0
 51
0.0
 72
   100
 90
   557152
  1

281
     0
 71
     1
 74
     0
110
0.0
120
0.0
130
0.0
111
1.0
121
0.0
131
0.0
112
0.0
122
1.0
132
0.0
 79
     0
146
0.0
  0
ENDBLK
  5
25
330
23
100
AcDbEntity
  8
0
100
AcDbBlockEnd
  0
ENDSEC
  0
SECTION
  2
ENTITIES
  0
SPLINE
  5
6F
330
1F
100
AcDbEntity
  8
0
  6
Continuous
 62
     7
370
    15
100
AcDbSpline
210
0.0
220
0.0
230
1.0
 70
     8
 71
     3
 72
    56
 73
    52
 74
     0
 42
0.000000001
 43
0.00000001
 40
0.0
 40
0.0
 40
0.0
 40
0.0
 40
0.0116877905673348
 40
0.0272427514116279
 40
0.0434233506540943
 40
0.0614015288458292
 40
0.0819696115922896
 40
0.1046431428214378
 40
0.1276960632977797
 40
0.1503079709950398
 40
0.1725376146688352
 40
0.1945048003461439
 40
0.2162957948256309
 40
0.237966350204157
 40
0.2595524774408767
 40
0.2810779705967695
 40
0.3025589905835512
 40
0.3240068210059354
 40
0.3454295521663792
 40
0.3668331355361289
 40
0.3882220617000596
 40
0.409599808045278
 40
0.4309691425832418
 40
0.4523323362451045
 40
0.4736913162659095
 40
0.4950477816526766
 40
0.5164032948215569
 40
0.5377591846143799
 40
0.559116636213962
 40
0.5804772189742752
 40
0.6018426404454512
 40
0.6232148360749644
 40
0.6445960813222497
 40
0.6659891391932325
 40
0.6873974624767605
 40
0.708825480224431
 40
0.7302790152042521
 40
0.7517659082529254
 40
0.7732969758055602
 40
0.7948875146821938
 40
0.8165597205528325
 40
0.838346637363906
 40
0.8602985804456125
 40
0.8824928547792626
 40
0.9050433133308097
 40
0.9280748175551999
 40
0.9481012305023794
 40
0.9654044082636295
 40
0.9809717695403207
 40
0.9958093954842506
 40
1.0
 40
1.0
 40
1.0
 40
1.0
 10
-77.92358081786324
 20
-155.706603044677
 30
0.0
 10
-77.90578422320029
 20
-155.9967835198224
 30
0.0
 10
-77.86430262737746
 20
-156.6731572538787
 30
0.0
 10
-77.49795382314134
 20
-157.6779408660782
 30
0.0
 10
-76.86817623371738
 20
-158.6749990512402
 30
0.0
 10
-75.97395710932409
 20
-159.61836058945
 30
0.0
 10
-74.76642023234028
 20
-160.5447950104082
 30
0.0
 10
-73.2038562238471
 20
-161.4545460472625
 30
0.0
 10
-71.3042291236829
 20
-162.3278125364446
 30
0.0
 10
-69.12321368088654
 20
-163.1475305817355
 30
0.0
 10
-66.69300258464294
 20
-163.913802880384
 30
0.0
 10
-64.02052423744183
 20
-164.6328597820052
 30
0.0
 10
-61.11133594227906
 20
-165.3081641403865
 30
0.0
 10
-57.97327176447659
 20
-165.9408496100854
 30
0.0
 10
-54.61658250389737
 20
-166.5306778702719
 30
0.0
 10
-51.05355861141375
 20
-167.0766673760686
 30
0.0
 10
-47.29817581244681
 20
-167.5774627101802
 30
0.0
 10
-43.36581595365907
 20
-168.0315530295472
 30
0.0
 10
-39.27304793528705
 20
-168.4374055993797
 30
0.0
 10
-35.03744880066834
 20
-168.7935505793116
 30
0.0
 10
-30.67745068860586
 20
-169.0986368485294
 30
0.0
 10
-26.21220421181441
 20
-169.3514699265886
 30
0.0
 10
-21.66145224229065
 20
-169.5510383338433
 30
0.0
 10
-17.04541027647899
 20
-169.6965321229834
 30
0.0
 10
-12.38465095044486
 20
-169.7873558209584
 30
0.0
 10
-7.699991163395562
 20
-169.8231371394114
 30
0.0
 10
-3.012393604184512
 20
-169.8037323229736
 30
0.0
 10
1.657132366075724
 20
-169.7292295030955
 30
0.0
 10
6.287663954017954
 20
-169.5999492503515
 30
0.0
 10
10.85848713374107
 20
-169.4164408895028
 30
0.0
 10
15.34921558375931
 20
-169.1794751750292
 30
0.0
 10
19.73987757144481
 20
-168.8900356146211
 30
0.0
 10
24.0110277829106
 20
-168.5493053932404
 30
0.0
 10
28.14386179776521
 20
-168.1586490507403
 30
0.0
 10
32.12033507291115
 20
-167.7195868972177
 30
0.0
 10
35.92328939423367
 20
-167.2337588152839
 30
0.0
 10
39.53659141821528
 20
-166.7028717703
 30
0.0
 10
42.94529070495992
 20
-166.1286211605698
 30
0.0
 10
46.13580854218308
 20
-165.5125682794173
 30
0.0
 10
49.09617677640212
 20
-164.855941054084
 30
0.0
 10
51.81635023472027
 20
-164.1592943158034
 30
0.0
 10
54.28864403479528
 20
-163.4219033774564
 30
0.0
 10
56.5082633113438
 20
-162.6406255356087
 30
0.0
 10
58.474002703489
 20
-161.8077133572544
 30
0.0
 10
60.18729225473686
 20
-160.9066689143063
 30
0.0
 10
61.57654800013226
 20
-159.955388332826
 30
0.0
 10
62.62473179378485
 20
-158.962281423581
 30
0.0
 10
63.35944969335633
 20
-157.9432614743393
 30
0.0
 10
63.78769580071231
 20
-156.8760820015646
 30
0.0
 10
63.96314320974478
 20
-156.0124503314222
 30
0.0
 10
63.89236882088365
 20
-155.5479254901161
 30
0.0
 10
63.87678211279803
 20
-155.445622761453
 30
0.0
  0
SPLINE
  5
70
330
1F
100
AcDbEntity
  8
0
  6
Continuous
 62
     7
370
    15
100
AcDbSpline
210
0.0
220
0.0
230
1.0
 70
     8
 71
     3
 72
    20
 73
    16
 74
     0
 42
0.000000001
 43
0.00000001
 40
0.0
 40
0.0
 40
0.0
 40
0.0
 40
0.0693709985868334
 40
0.1504546039836929
 40
0.2313651601542602
 40
0.3120455681812461
 40
0.3924153924866741
 40
0.4723596805242586
 40
0.5517127371903293
 40
0.6302365454623103
 40
0.7075988561794979
 40
0.7833742568258512
 40
0.8571426018455189
 40
0.9288803756639351
 40
1.0
 40
1.0
 40
1.0
 40
1.0
 10
-49.39585696990083
 20
-162.9111563948378
 30
0.0
 10
-50.41218280857154
 20
-162.7681940309944
 30
0.0
 10
-52.61643104905482
 20
-162.4581315225285
 30
0.0
 10
-55.75335418258521
 20
-161.9331009637094
 30
0.0
 10
-58.83588065303783
 20
-161.3505502815667
 30
0.0
 10
-61.66160622397587
 20
-160.7362563223686
 30
0.0
 10
-64.22132661670253
 20
-160.0966326756789
 30
0.0
 10
-66.49775772793751
 20
-159.4375516132198
 30
0.0
 10
-68.47629553604733
 20
-158.7673236331052
 30
0.0
 10
-70.1423530144652
 20
-158.0970466802823
 30
0.0
 10
-71.48246883691453
 20
-157.4434022033691
 30
0.0
 10
-72.48752357176367
 20
-156.8290090194352
 30
0.0
 10
-73.15350933260991
 20
-156.2961791811494
 30
0.0
 10
-73.5095757611536
 20
-155.8769276664209
 30
0.0
 10
-73.55496529873803
 20
-155.7718040393478
 30
0.0
 10
-73.57756186638865
 20
-155.7194696628095
 30
0.0
  0
LWPOLYLINE
  5
71
330
1F
100
AcDbEntity
  8
0
  6
Continuous
 62
     7
370
    15
100
AcDbPolyline
 90
       65
 70
   128
 43
0.0
 10
-73.5849068401
 20
-155.716147935
 10
-73.5849963068
 20
-155.7175949351
 10
-73.541420177
 20
-155.6170950063
 10
-73.3330836624
 20
-155.3329382268
 10
-72.8477689083
 20
-154.8794240317
 10
-72.0752362391
 20
-154.3383455909
 10
-70.9964616515
 20
-153.7395316873
 10
-69.5999064832
 20
-153.104740777
 10
-67.8860833406
 20
-152.4527779182
 10
-65.8630765864
 20
-151.7985627143
 10
-63.5432335134
 20
-151.1535491589
 10
-60.9410997277
 20
-150.5264912334
 10
-58.0723843777
 20
-149.9241855048
 10
-54.9535363182
 20
-149.3520477746
 10
-51.601609869
 20
-148.8145139634
 10
-48.0342412197
 20
-148.3153032919
 10
-44.2696527178
 20
-147.8575861678
 10
-40.3266522584
 20
-147.4440898163
 10
-36.2246174839
 20
-147.0771642745
 10
-31.9834635386
 20
-146.758823409
 10
-27.6235962689
 20
-146.490770246
 10
-23.1658535155
 20
-146.274412471
 10
-18.6314370569
 20
-146.110871801
 10
-14.0418374209
 20
-146.0009895805
 10
-9.4187534326
 20
-145.9453300983
 10
-4.784008082
 20
-145.9441825713
 10
-0.1594620805
 20
-145.9975623687
 10
4.4329681183
 20
-146.105208675
 10
8.971606141
 20
-146.2665871303
 10
13.4349994062
 20
-146.4808903132
 10
17.8020003613
 20
-146.7470366386
 10
22.0518460801
 20
-147.0636678421
 10
26.1642322942
 20
-147.429144018
 10
30.1193798856
 20
-147.8415345766
 10
33.8980913453
 20
-148.2986025053
 10
37.4817939735
 20
-148.7977776982
 10
40.8525656537
 20
-149.3361123715
 10
43.9931379574
 20
-149.9102068242
 10
46.8868705942
 20
-150.5160853711
 10
49.5176922712
 20
-151.1489871055
 10
51.8700102191
 20
-151.8030085976
 10
53.9286160457
 20
-152.4704859806
 10
55.6786916299
 20
-153.1409183442
 10
57.1062285298
 20
-153.7991073628
 10
58.1997101038
 20
-154.4220922978
 10
58.955100141
 20
-154.9748283298
 10
59.388008092
 20
-155.4069868253
 10
59.5559374648
 20
-155.6611252271
 10
59.5769018873
 20
-155.7159529277
 10
59.5744190521
 20
-155.7055669609
 10
59.4949257045
 20
-155.8604182107
 10
59.2225719504
 20
-156.1903438936
 10
58.6625921595
 20
-156.6711459829
 10
57.8104150806
 20
-157.229786832
 10
56.6474532948
 20
-157.840242356
 10
55.1658793594
 20
-158.4812887011
 10
53.3686100223
 20
-159.1351554123
 10
51.2651396826
 20
-159.7879113091
 10
48.8685537633
 20
-160.4289006433
 10
46.1937767908
 20
-161.0499581319
 10
43.2567401236
 20
-161.6447039945
 10
40.0740603791
 20
-162.2080163723
 10
36.6629472264
 20
-162.7356715175
 10
34.7512555952
 20
-162.9934867488
 10
34.7512555952
 20
-162.9934867488
  0
SPLINE
  5
74
330
1F
100
AcDbEntity
  8
0
  6
Continuous
 62
     7
370
    15
100
AcDbSpline
210
0.0
220
0.0
230
1.0
 70
     8
 71
     3
 72
    19
 73
    15
 74
     0
 42
0.000000001
 43
0.00000001
 40
0.0
 40
0.0
 40
0.0
 40
0.0
 40
0.0464830987136997
 40
0.1330418304199819
 40
0.2197709823983139
 40
0.3066355721372566
 40
0.4030017014287017
 40
0.4990463105783457
 40
0.5945170056462495
 40
0.689429044531566
 40
0.7838020732848966
 40
0.8776532830295565
 40
0.970997139388369
 40
1.0
 40
1.0
 40
1.0
 40
1.0
 10
-55.64042443471472
 20
-75.78955964600217
 30
0.0
 10
-56.23497148718004
 20
-76.6274890068043
 30
0.0
 10
-57.93665726802661
 20
-79.0257726627711
 30
0.0
 10
-60.49682886885626
 20
-83.16275504763749
 30
0.0
 10
-63.32987022968606
 20
-88.17566130646536
 30
0.0
 10
-66.00238099511012
 20
-93.52450803654177
 30
0.0
 10
-68.48402700734964
 20
-99.1929422403704
 30
0.0
 10
-70.72338968156356
 20
-105.1676235584434
 30
0.0
 10
-72.63105173725751
 20
-111.2241111883297
 30
0.0
 10
-74.20299697307509
 20
-117.3387964035149
 30
0.0
 10
-75.44882556808284
 20
-123.4934166025388
 30
0.0
 10
-76.34086775986145
 20
-129.6720262865076
 30
0.0
 10
-76.8440688010955
 20
-134.4434013913871
 30
0.0
 10
-76.94340230574583
 20
-137.1542210997758
 30
0.0
 10
-76.96694977690629
 20
-137.7968335710582
 30
0.0
  0
SPLINE
  5
75
330
1F
100
AcDbEntity
  8
0
  6
Continuous
 62
     7
370
    15
100
AcDbSpline
210
0.0
220
0.0
230
1.0
 70
     8
 71
     3
 72
    19
 73
    15
 74
     0
 42
0.000000001
 43
0.00000001
 40
0.0
 40
0.0
 40
0.0
 40
0.0
 40
0.0626546982392235
 40
0.1540861459520784
 40
0.2450404496422015
 40
0.3355157879755943
 40
0.4255073447401391
 40
0.5150070471948858
 40
0.6040031753627788
 40
0.6924798007434636
 40
0.7804159937734091
 40
0.8677847107946101
 40
0.9545512286801813
 40
1.0
 40
1.0
 40
1.0
 40
1.0
 10
62.95907404775543
 20
-137.7901233045718
 30
0.0
 10
62.8865660644152
 20
-136.4031872163326
 30
0.0
 10
62.70824782144808
 20
-132.9923075453037
 30
0.0
 10
62.06808950841803
 20
-127.5954700625724
 30
0.0
 10
61.09393624717818
 20
-121.6262460498888
 30
0.0
 10
59.81387700073046
 20
-115.7470028781485
 30
0.0
 10
58.25084381849994
 20
-109.9714026296777
 30
0.0
 10
56.40968675015093
 20
-104.3138008587242
 30
0.0
 10
54.3013789666114
 20
-98.78756645569058
 30
0.0
 10
51.93501985614918
 20
-93.4066709388549
 30
0.0
 10
49.32591453812864
 20
-88.18099340071224
 30
0.0
 10
46.4716792864569
 20
-83.13336069710824
 30
0.0
 10
43.91322651418161
 20
-79.00193211435287
 30
0.0
 10
42.2219801680468
 20
-76.61978022122392
 30
0.0
 10
41.64061723420672
 20
-75.80091973019776
 30
0.0
  0
SPLINE
  5
76
330
1F
100
AcDbEntity
  8
0
  6
Continuous
 62
     7
370
    15
100
AcDbSpline
210
0.0
220
0.0
230
1.0
 70
     8
 71
     3
 72
    19
 73
    15
 74
     0
 42
0.000000001
 43
0.00000001
 40
0.0
 40
0.0
 40
0.0
 40
0.0
 40
0.0235853939263884
 40
0.1061533103309488
 40
0.1894526014012182
 40
0.2826900358828848
 40
0.3761307431058129
 40
0.4693239468131449
 40
0.5621481148621419
 40
0.654534560278194
 40
0.7464439029694335
 40
0.8378544828422667
 40
0.9287548141235642
 40
1.0
 40
1.0
 40
1.0
 40
1.0
 10
41.6891092081195
 20
-75.76485355381858
 30
0.0
 10
41.40377973079823
 20
-75.36970314236841
 30
0.0
 10
40.11956677055749
 20
-73.59120733326768
 30
0.0
 10
38.01889411285168
 20
-70.23780034395776
 30
0.0
 10
35.31033485695699
 20
-65.53626118817411
 30
0.0
 10
32.75965918009734
 20
-60.45376115388091
 30
0.0
 10
30.40614131120508
 20
-55.02621444162219
 30
0.0
 10
28.3635871902545
 20
-49.46391813353728
 30
0.0
 10
26.64180607482518
 20
-43.80337374526227
 30
0.0
 10
25.24717276412334
 20
-38.07107458869535
 30
0.0
 10
24.1780459816658
 20
-32.29166014573567
 30
0.0
 10
23.44677040498398
 20
-26.48785236840042
 30
0.0
 10
23.03504840656001
 20
-21.08894067333518
 30
0.0
 10
23.01595779001406
 20
-17.6278842592737
 30
0.0
 10
23.00756955611063
 20
-16.10712924938486
 30
0.0
  0
SPLINE
  5
77
330
1F
100
AcDbEntity
  8
0
  6
Continuous
 62
     7
370
    15
100
AcDbSpline
210
0.0
220
0.0
230
1.0
 70
     8
 71
     3
 72
    19
 73
    15
 74
     0
 42
0.000000001
 43
0.00000001
 40
0.0
 40
0.0
 40
0.0
 40
0.0
 40
0.0858010840375033
 40
0.1752931611869187
 40
0.264246107783508
 40
0.3526515363015467
 40
0.4404925281768609
 40
0.5277440972970583
 40
0.6143705699324714
 40
0.7003221586943175
 40
0.7855304456484486
 40
0.8699025309063931
 40
0.9533137693181293
 40
1.0
 40
1.0
 40
1.0
 40
1.0
 10
-36.98886347322777
 20
-16.11010405519657
 30
0.0
 10
-37.01658879714608
 20
-17.94100939252283
 30
0.0
 10
-37.07323213363875
 20
-21.68158199733562
 30
0.0
 10
-37.53851964459633
 20
-27.30310149630817
 30
0.0
 10
-38.29396303414686
 20
-32.94365490970583
 30
0.0
 10
-39.35134408236585
 20
-38.49521766159022
 30
0.0
 10
-40.69337567354651
 20
-43.9399262087183
 30
0.0
 10
-42.31076715076286
 20
-49.26004448900042
 30
0.0
 10
-44.18985275047123
 20
-54.43825723358322
 30
0.0
 10
-46.31685723501677
 20
-59.45624816933454
 30
0.0
 10
-48.67159151983299
 20
-64.29940502999276
 30
0.0
 10
-51.24601793950254
 20
-68.93889724624488
 30
0.0
 10
-53.5860086227506
 20
-72.76231402838862
 30
0.0
 10
-55.13826534725452
 20
-74.96287489601106
 30
0.0
 10
-55.69530166796521
 20
-75.75255891531663
 30
0.0
  0
SPLINE
  5
78
330
1F
100
AcDbEntity
  8
0
  6
Continuous
 62
     7
370
    15
100
AcDbSpline
210
0.0
220
0.0
230
1.0
 70
     8
 71
     3
 72
    14
 73
    10
 74
     0
 42
0.000000001
 43
0.00000001
 40
0.0
 40
0.0
 40
0.0
 40
0.0
 40
0.0319870899309531
 40
0.1509122711686443
 40
0.2935350964222637
 40
0.4610910127997132
 40
0.7245695933580072
 40
0.9624505363169912
 40
1.0
 40
1.0
 40
1.0
 40
1.0
 10
-16.47097260446633
 20
-146.0591468902914
 30
0.0
 10
-16.28476215496815
 20
-146.1283546879952
 30
0.0
 10
-15.40623766556433
 20
-146.454870978055
 30
0.0
 10
-13.64330821259414
 20
-146.9262077653138
 30
0.0
 10
-11.03120777405891
 20
-147.458325334096
 30
0.0
 10
-7.476500658000623
 20
-147.8034057330654
 30
0.0
 10
-3.365989611893112
 20
-147.5007935693244
 30
0.0
 10
-0.1630217902470589
 20
-146.7498560098648
 30
0.0
 10
1.349406700512146
 20
-146.1231958963909
 30
0.0
 10
1.555596276235815
 20
-146.0377632404276
 30
0.0
  0
SPLINE
  5
7B
330
1F
100
AcDbEntity
  8
0
  6
Continuous
 62
     7
370
    15
100
AcDbSpline
210
0.0
220
0.0
230
1.0
 70
     8
 71
     3
 72
    17
 73
    13
 74
     0
 42
0.000000001
 43
0.00000001
 40
0.0
 40
0.0
 40
0.0
 40
0.0
 40
0.1057167340310269
 40
0.2314822630126514
 40
0.3595584297535986
 40
0.4917528811738354
 40
0.6319047793707948
 40
0.7323736595307085
 40
0.8130508986799492
 40
0.8853754054775227
 40
0.9537180323436094
 40
1.0
 40
1.0
 40
1.0
 40
1.0
 10
-25.56793048415622
 20
34.64053164630914
 30
0.0
 10
-26.2083865241359
 20
34.5363656004576
 30
0.0
 10
-27.61075876778754
 20
34.30827879618951
 30
0.0
 10
-29.52223131618338
 20
33.89683040223543
 30
0.0
 10
-31.35436063826315
 20
33.41005698542475
 30
0.0
 10
-32.99565481721198
 20
32.84016316166813
 30
0.0
 10
-34.30822102285147
 20
32.21743781256252
 30
0.0
 10
-35.32505458217651
 20
31.52279562132662
 30
0.0
 10
-36.07111351483701
 20
30.78726657960225
 30
0.0
 10
-36.62479777715111
 20
29.9339005082903
 30
0.0
 10
-36.94171410013217
 20
29.03972336790304
 30
0.0
 10
-36.97530177797384
 20
28.44598040231987
 30
0.0
 10
-36.98886347322779
 20
28.20624483035288
 30
0.0
  0
SPLINE
  5
7C
330
1F
100
AcDbEntity
  8
0
  6
Continuous
 62
     7
370
    15
100
AcDbSpline
210
0.0
220
0.0
230
1.0
 70
     8
 71
     3
 72
    19
 73
    15
 74
     0
 42
0.000000001
 43
0.00000001
 40
0.0
 40
0.0
 40
0.0
 40
0.0
 40
0.0099434596628056
 40
0.074525631521395
 40
0.1373029365513583
 40
0.2026226819624604
 40
0.2763085411906025
 40
0.3666555351155713
 40
0.4838161051355468
 40
0.6019500074609346
 40
0.7262012871954356
 40
0.8448540629682824
 40
0.9605432843345352
 40
0.9999999999999999
 40
0.9999999999999999
 40
0.9999999999999999
 40
0.9999999999999999
 10
22.96178386096759
 20
28.18215552537441
 30
0.0
 10
22.96822790907903
 20
28.23769027745851
 30
0.0
 10
23.01652566170693
 20
28.65391990082919
 30
0.0
 10
22.81400506760611
 20
29.42914073097642
 30
0.0
 10
22.38708736356341
 20
30.34510804606431
 30
0.0
 10
21.77503465732882
 20
31.0982956499236
 30
0.0
 10
21.01721081640398
 20
31.74780526606731
 30
0.0
 10
20.01793909794057
 20
32.36281139213528
 30
0.0
 10
18.72986038386808
 20
32.93866040513574
 30
0.0
 10
17.08387405975698
 20
33.48801742413358
 30
0.0
 10
15.17909966048956
 20
33.97922082123535
 30
0.0
 10
13.01744483591648
 20
34.41109505388583
 30
0.0
 10
11.22638187581937
 20
34.71273329072921
 30
0.0
 10
10.09584748799272
 20
34.85457318869303
 30
0.0
 10
9.808329975488434
 20
34.89064591242045
 30
0.0
  0
LWPOLYLINE
  5
8A
330
1F
100
AcDbEntity
  8
0
  6
Continuous
 62
     8
370
    15
100
AcDbPolyline
 90
       46
 70
   128
 43
0.0
 10
63.9086721443
 20
-155.4638235307
 10
63.8686883132
 20
-155.1631338673
 10
63.5156044003
 20
-154.296100227
 10
62.8111956209
 20
-153.435551257
 10
61.758971304
 20
-152.5857741691
 10
60.3641735782
 20
-151.7510025098
 10
58.6337512558
 20
-150.9353950696
 10
56.5763252135
 20
-150.1430151639
 10
54.2021454446
 20
-149.3778103893
 10
51.5230399931
 20
-148.6435929575
 10
48.5523560277
 20
-147.944020703
 10
45.3048933464
 20
-147.2825788595
 10
41.796830645
 20
-146.662562697
 10
38.0456449154
 20
-146.0870611047
 10
34.0700243762
 20
-145.5589412028
 10
29.889775369
 20
-145.0808340579
 10
25.525723684
 20
-144.6551215759
 10
20.9996108072
 20
-144.2839246348
 10
16.3339856053
 20
-143.9690925193
 10
11.5520919883
 20
-143.712193707
 10
6.6777531098
 20
-143.5145080549
 10
1.7352526808
 20
-143.377020423
 10
-3.2507860101
 20
-143.3004157677
 10
-8.255522769
 20
-143.2850757296
 10
-13.2540242492
 20
-143.3310767321
 10
-18.2213881676
 20
-143.4381896003
 10
-23.1328673671
 20
-143.6058807034
 10
-27.9639931053
 20
-143.8333146128
 10
-32.690696957
 20
-144.1193582641
 10
-37.2894307211
 20
-144.4625866023
 10
-41.7372837375
 20
-144.861289681
 10
-46.0120970262
 20
-145.3134811816
 10
-50.0925736823
 20
-145.8169083088
 10
-53.9583849764
 20
-146.3690630139
 10
-57.5902716312
 20
-146.9671944899
 10
-60.9701397699
 20
-147.608322876
 10
-64.0811510596
 20
-148.2892541028
 10
-66.9078065985
 20
-149.0065958051
 10
-69.4360241308
 20
-149.7567742227
 10
-71.653208204
 20
-150.5360520045
 10
-73.5483129186
 20
-151.3405468276
 10
-75.1118969582
 20
-152.1662507395
 10
-76.3361706258
 20
-153.0090501246
 10
-77.2150346515
 20
-153.864746199
 10
-77.744110579
 20
-154.7290759277
 10
-77.917834147
 20
-155.4858222324
  0
LWPOLYLINE
  5
8B
330
1F
100
AcDbEntity
  8
0
  6
Continuous
 62
     8
370
    15
100
AcDbPolyline
 90
       45
 70
   128
 43
0.0
 10
62.9934575696
 20
-137.79604821
 10
62.8179375783
 20
-137.0382419236
 10
62.2837886642
 20
-136.1755034576
 10
61.3965653223
 20
-135.3215801439
 10
60.1607886395
 20
-134.48082338
 10
58.5827558505
 20
-133.6575174696
 10
56.6705082487
 20
-132.855857791
 10
54.4337902095
 20
-132.079929418
 10
51.8839995353
 20
-131.3336863039
 10
49.0341293749
 20
-130.6209311324
 10
45.8987020135
 20
-129.9452959405
 10
42.4936948702
 20
-129.3102236104
 10
38.8364590808
 20
-128.718950325
 10
34.9456310806
 20
-128.1744890775
 10
30.8410376374
 20
-127.6796143176
 10
26.5435948183
 20
-127.2368478136
 10
22.075201407
 20
-126.8484458021
 10
17.458627312
 20
-126.5163874908
 10
12.7173975367
 20
-126.2423649727
 10
7.8756723013
 20
-126.0277746037
 10
2.9581239276
 20
-125.8737098872
 10
-2.0101888849
 20
-125.7809559017
 10
-7.003948753
 20
-125.7499853001
 10
-11.9977086211
 20
-125.7809559017
 10
-16.9660214336
 20
-125.8737098872
 10
-21.8835698072
 20
-126.0277746037
 10
-26.7252950427
 20
-126.2423649727
 10
-31.4665248179
 20
-126.5163874908
 10
-36.0830989129
 20
-126.8484458021
 10
-40.5514923243
 20
-127.2368478136
 10
-44.8489351433
 20
-127.6796143176
 10
-48.9535285866
 20
-128.1744890775
 10
-52.8443565867
 20
-128.718950325
 10
-56.5015923761
 20
-129.3102236104
 10
-59.9065995194
 20
-129.9452959405
 10
-63.0420268808
 20
-130.6209311324
 10
-65.8918970412
 20
-131.3336863039
 10
-68.4416877154
 20
-132.079929418
 10
-70.6784057546
 20
-132.855857791
 10
-72.5906533565
 20
-133.6575174697
 10
-74.1686861455
 20
-134.48082338
 10
-75.4044628283
 20
-135.3215801439
 10
-76.2916861701
 20
-136.1755034576
 10
-76.8258350843
 20
-137.0382419236
 10
-77.0013550756
 20
-137.79604821
  0
LWPOLYLINE
  5
8D
330
1F
100
AcDbEntity
  8
0
  6
Continuous
 62
     8
370
    15
100
AcDbPolyline
 90
       36
 70
   128
 43
0.0
 10
41.7161724032
 20
-75.8487154728
 10
41.3695146422
 20
-75.4377642872
 10
40.4918290579
 20
-74.7305863581
 10
39.2719353062
 20
-74.0388811896
 10
37.7186227494
 20
-73.3676325332
 10
35.8430830401
 20
-72.7216767508
 10
33.6588294849
 20
-72.1056679687
 10
31.1815996807
 20
-71.5240445443
 10
28.4292421251
 20
-70.9809970877
 10
25.4215876172
 20
-70.4804382682
 10
22.1803063767
 20
-70.0259746236
 10
18.7287519093
 20
-69.6208805748
 10
15.0917927439
 20
-69.2680748339
 10
11.2956332548
 20
-68.9700993742
 10
7.3676248579
 20
-68.7291011157
 10
3.3360689438
 20
-68.5468164565
 10
-0.7699870347
 20
-68.4245587616
 10
-4.9209588502
 20
-68.3632089006
 10
-9.0869386557
 20
-68.3632089006
 10
-13.2379104713
 20
-68.4245587616
 10
-17.3439664498
 20
-68.5468164565
 10
-21.3755223638
 20
-68.7291011157
 10
-25.3035307607
 20
-68.9700993742
 10
-29.0996902499
 20
-69.2680748339
 10
-32.7366494152
 20
-69.6208805748
 10
-36.1882038827
 20
-70.0259746236
 10
-39.4294851231
 20
-70.4804382682
 10
-42.437139631
 20
-70.9809970877
 10
-45.1894971867
 20
-71.5240445443
 10
-47.6667269909
 20
-72.1056679687
 10
-49.850980546
 20
-72.7216767508
 10
-51.7265202553
 20
-73.3676325332
 10
-53.2798328121
 20
-74.0388811896
 10
-54.4997265639
 20
-74.7305863581
 10
-55.3774121481
 20
-75.4377642872
 10
-55.7240060485
 20
-75.8486243363
  0
LWPOLYLINE
  5
8E
330
1F
100
AcDbEntity
  8
0
  6
Continuous
 62
     8
370
    15
100
AcDbPolyline
 90
       30
 70
   128
 43
0.0
 10
22.9809659563
 20
-16.1099629312
 10
22.816117205
 20
-15.5648715333
 10
22.3002210142
 20
-15.0069153233
 10
21.4391514152
 20
-14.4619535579
 10
20.2430509348
 20
-13.9364053344
 10
18.7260084241
 20
-13.4364610779
 10
16.9058931055
 20
-12.9680096248
 10
14.8041440923
 20
-12.5365688583
 10
12.4455178566
 20
-12.1472207132
 10
9.8577966243
 20
-11.8045513159
 10
7.0714611276
 20
-11.5125969644
 10
4.1193315737
 20
-11.2747965851
 10
1.0361810555
 20
-11.0939512251
 10
-2.1416740399
 20
-10.9721910596
 10
-5.3768018015
 20
-10.9109502998
 10
-8.6310957044
 20
-10.9109502998
 10
-11.8662234661
 20
-10.9721910596
 10
-15.0440785615
 20
-11.0939512251
 10
-18.1272290797
 20
-11.2747965851
 10
-21.0793586336
 20
-11.5125969644
 10
-23.8656941302
 20
-11.8045513159
 10
-26.4534153626
 20
-12.1472207132
 10
-28.8120415982
 20
-12.5365688583
 10
-30.9137906115
 20
-12.9680096248
 10
-32.73390593
 20
-13.4364610779
 10
-34.2509484408
 20
-13.9364053344
 10
-35.4470489211
 20
-14.4619535579
 10
-36.3081185201
 20
-15.0069153233
 10
-36.8240147109
 20
-15.5648715333
 10
-36.9888617117
 20
-16.1083192824
  0
LWPOLYLINE
  5
8F
330
1F
100
AcDbEntity
  8
0
  6
Continuous
 62
     8
370
    15
100
AcDbPolyline
 90
       30
 70
   128
 43
0.0
 10
22.9809659673
 20
28.2062448304
 10
22.8051931125
 20
28.7692017248
 10
22.2799353241
 20
29.3255584644
 10
21.4113507693
 20
29.868792275
 10
20.2096228081
 20
30.3925342369
 10
18.6888406019
 20
30.8906439545
 10
16.8668339316
 20
31.3572815467
 10
14.7649641596
 20
31.7869761144
 10
12.4078737873
 20
32.1746898818
 10
9.823197544
 20
32.5158772592
 10
7.0412383957
 20
32.8065381368
 10
4.0946122696
 20
33.0432647815
 10
1.0178656631
 20
33.2232817897
 10
-2.1529293831
 20
33.3444786267
 10
-5.380598196
 20
33.4054343704
 10
-8.62729931
 20
33.4054343704
 10
-11.8549681229
 20
33.3444786267
 10
-15.025763169
 20
33.2232817897
 10
-18.1025097756
 20
33.0432647815
 10
-21.0491359016
 20
32.8065381368
 10
-23.83109505
 20
32.5158772592
 10
-26.4157712932
 20
32.1746898818
 10
-28.7728616656
 20
31.7869761144
 10
-30.8747314375
 20
31.3572815467
 10
-32.6967381078
 20
30.8906439545
 10
-34.217520314
 20
30.3925342369
 10
-35.4192482753
 20
29.868792275
 10
-36.28783283
 20
29.3255584644
 10
-36.8130906184
 20
28.7692017248
 10
-36.9888634732
 20
28.2062448304
  0
LINE
  5
92
330
1F
100
AcDbEntity
  8
0
  6
Continuous
 62
     7
370
    15
100
AcDbLine
 10
63.9099953884
 20
-155.4869504199
 30
0.0
 11
62.9934575696
 21
-137.79604821
 31
0.0
  0
LINE
  5
93
330
1F
100
AcDbEntity
  8
0
  6
Continuous
 62
     7
370
    15
100
AcDbLine
 10
-77.0013550756
 20
-137.79604821
 30
0.0
 11
-77.9178928943
 21
-155.4869504199
 31
0.0
  0
LINE
  5
94
330
1F
100
AcDbEntity
  8
0
  6
Continuous
 62
     7
370
    15
100
AcDbLine
 10
22.9809659673
 20
-16.1101040552
 30
0.0
 11
22.9809659673
 21
28.2062448304
 31
0.0
  0
LINE
  5
95
330
1F
100
AcDbEntity
  8
0
  6
Continuous
 62
     7
370
    15
100
AcDbLine
 10
-36.9888634732
 20
28.2062448304
 30
0.0
 11
-36.9888634732
 21
-16.1101040552
 31
0.0
  0
LINE
  5
96
330
1F
100
AcDbEntity
  8
0
  6
Continuous
 62
     7
370
    15
100
AcDbLine
 10
30.7534469281
 20
-29.569627602
 30
0.0
 11
30.2565695361
 21
-29.569627602
 31
0.0
  0
LINE
  5
97
330
1F
100
AcDbEntity
  8
0
  6
Continuous
 62
     7
370
    15
100
AcDbLine
 10
30.2565695361
 20
-37.099627602
 30
0.0
 11
30.7534469281
 21
-37.099627602
 31
0.0
  0
LINE
  5
98
330
1F
100
AcDbEntity
  8
0
  6
Continuous
 62
     7
370
    15
100
AcDbLine
 10
-44.3644670421
 20
-29.569627602
 30
0.0
 11
-44.4881097484
 21
-29.569627602
 31
0.0
  0
LINE
  5
99
330
1F
100
AcDbEntity
  8
0
  6
Continuous
 62
     7
370
    15
100
AcDbLine
 10
-44.4881097484
 20
-37.099627602
 30
0.0
 11
-44.3644670421
 21
-37.099627602
 31
0.0
  0
LINE
  5
9A
330
1F
100
AcDbEntity
  8
0
  6
Continuous
 62
     7
370
    15
100
AcDbLine
 10
-77.917834147
 20
-155.4858222324
 30
0.0
 11
-77.9207625787
 21
-155.5977332636
 31
0.0
  0
LINE
  5
9B
330
1F
100
AcDbEntity
  8
0
  6
Continuous
 62
     7
370
    15
100
AcDbLine
 10
30.7534469281
 20
-29.569627602
 30
0.0
 11
30.7534469281
 21
-37.099627602
 31
0.0
  0
LINE
  5
9C
330
1F
100
AcDbEntity
  8
0
  6
Continuous
 62
     7
370
    15
100
AcDbLine
 10
-44.4881097484
 20
-31.1134588635
 30
0.0
 11
-44.4881097484
 21
-29.569627602
 31
0.0
  0
LINE
  5
9D
330
1F
100
AcDbEntity
  8
0
  6
Continuous
 62
     7
370
    15
100
AcDbLine
 10
-44.4881097484
 20
-37.099627602
 30
0.0
 11
-44.4881097484
 21
-35.5557963406
 31
0.0
  0
ARC
  5
9E
330
1F
100
AcDbEntity
  8
0
  6
Continuous
 62
     7
370
    15
100
AcDbCircle
 10
-6.9709529216
 20
181.5193773986
 30
0.0
 40
347.0866239511368
100
AcDbArc
 50
262.9294392379
 51
276.955058104
  0
ARC
  5
9F
330
1F
100
AcDbEntity
  8
0
  6
Continuous
 62
     7
370
    15
100
AcDbCircle
 10
-6.9236291174
 20
-99.6054099035
 30
0.0
 40
135.5248288324195
100
AcDbArc
 50
82.9931479679
 51
97.7090405694
  0
ARC
  5
A0
330
1F
100
AcDbEntity
  8
0
  6
Continuous
 62
     7
370
    15
100
AcDbCircle
 10
-7.053948753
 20
-33.334627602
 30
0.0
 40
37.49999999999986
100
AcDbArc
 50
338.2736445042
 51
36.7808958362
  0
ARC
  5
A1
330
1F
100
AcDbEntity
  8
0
  6
Continuous
 62
     7
370
    15
100
AcDbCircle
 10
-7.053948753
 20
-33.334627602
 30
0.0
 40
37.49999999999969
100
AcDbArc
 50
142.9646822128
 51
201.7478425844
  0
ARC
  5
A2
330
1F
100
AcDbEntity
  8
0
  6
Continuous
 62
     8
370
    15
100
AcDbCircle
 10
-7.0035318166
 20
207.4320778781
 30
0.0
 40
357.4145943354284
100
AcDbArc
 50
263.8921410916
 51
276.1058510677
  0
ARC
  5
A3
330
1F
100
AcDbEntity
  8
0
  6
Continuous
 62
     8
370
    15
100
AcDbCircle
 10
-7.053948753
 20
-33.334627602
 30
0.0
 40
37.20000000000024
100
AcDbArc
 50
143.5814864698
 51
201.4687103354
  0
ARC
  5
A4
330
1F
100
AcDbEntity
  8
0
  6
Continuous
 62
     8
370
    15
100
AcDbCircle
 10
-7.053948753
 20
-33.334627602
 30
0.0
 40
37.20000000000107
100
AcDbArc
 50
339.085872446
 51
36.1582768779
  0
SPLINE
  5
1C5
330
1C1
100
AcDbEntity
 67
     1
  8
0
  6
Continuous
 62
     7
370
    15
100
AcDbSpline
210
0.0
220
0.0
230
1.0
 70
     8
 71
     3
 72
    32
 73
    28
 74
     0
 42
0.000000001
 43
0.00000001
 40
0.0
 40
0.0
 40
0.0
 40
0.0
 40
0.0124694160075757
 40
0.054256235450938
 40
0.096051832925941
 40
0.1378564592311928
 40
0.1796699879374946
 40
0.221491942155548
 40
0.263321531751177
 40
0.3051576968094171
 40
0.3469991540671271
 40
0.3888444442409057
 40
0.4306918855357684
 40
0.4725393628354884
 40
0.5143851935862955
 40
0.5562277317384405
 40
0.5980654229173717
 40
0.6398968635151604
 40
0.6817208619811321
 40
0.7235364995790111
 40
0.7653431865351066
 40
0.8071407084905017
 40
0.8489292577554883
 40
0.8907094442484841
 40
0.932482282270045
 40
0.974249151338789
 40
1.0
 40
1.0
 40
1.0
 40
1.0
 10
16.19367043279053
 20
-169.9988703102374
 30
0.0
 10
16.00740148347306
 20
-169.7590915388072
 30
0.0
 10
15.19691830084224
 20
-168.7157793683773
 30
0.0
 10
13.51672436060665
 20
-167.0706445775476
 30
0.0
 10
11.17567197219921
 20
-165.0973787010875
 30
0.0
 10
8.624641496049447
 20
-163.386888730662
 30
0.0
 10
5.913602606046113
 20
-161.9389887431124
 30
0.0
 10
3.064860852905908
 20
-160.7738918323825
 30
0.0
 10
0.1100648818237356
 20
-159.9026423456695
 30
0.0
 10
-2.920104955477669
 20
-159.3348594808697
 30
0.0
 10
-5.993583575496407
 20
-159.0765205044894
 30
0.0
 10
-9.077974379440288
 20
-159.1304559255561
 30
0.0
 10
-12.14069222507733
 20
-159.4961593606274
 30
0.0
 10
-15.14937446306184
 20
-160.1698240865787
 30
0.0
 10
-18.07221755948445
 20
-161.1443692904333
 30
0.0
 10
-20.87833059798483
 20
-162.4095213253605
 30
0.0
 10
-23.53805552797922
 20
-163.9519190496119
 30
0.0
 10
-26.02328806137829
 20
-165.7552560446392
 30
0.0
 10
-28.30777701662028
 20
-167.8004556910332
 30
0.0
 10
-30.36741999918785
 20
-170.065878103914
 30
0.0
 10
-32.18047173967849
 20
-172.5275543040644
 30
0.0
 10
-33.72795960919039
 20
-175.1594521720457
 30
0.0
 10
-34.99319214851474
 20
-177.9337420982153
 30
0.0
 10
-35.96450455839258
 20
-180.8211643809967
 30
0.0
 10
-36.62577074808177
 20
-183.7910982661443
 30
0.0
 10
-36.94554791211044
 20
-186.4266770000756
 30
0.0
 10
-36.97690432662388
 20
-188.0627847535304
 30
0.0
 10
-36.98886347322779
 20
-188.6867863425823
 30
0.0
  0
SPLINE
  5
1D0
330
1C1
100
AcDbEntity
 67
     1
  8
0
  6
Continuous
 62
     7
370
    15
100
AcDbSpline
210
0.0
220
0.0
230
1.0
 70
     8
 71
     3
 72
    10
 73
     6
 74
     0
 42
0.000000001
 43
0.00000001
 40
0.0
 40
0.0
 40
0.0
 40
0.0
 40
0.30088594771959
 40
0.7708893465990188
 40
1.0
 40
1.0
 40
1.0
 40
1.0
 10
9.010105723156247
 20
-187.2752733344717
 30
0.0
 10
8.742060289454578
 20
-186.8336056422922
 30
0.0
 10
8.055310473415634
 20
-185.7020243198057
 30
0.0
 10
6.953975427503215
 20
-184.3668943243124
 30
0.0
 10
6.059315467579662
 20
-183.5654954006121
 30
0.0
 10
5.766121349508112
 20
-183.3028643886265
 30
0.0
  0
SPLINE
  5
1D1
330
1C1
100
AcDbEntity
 67
     1
  8
0
  6
Continuous
 62
     7
370
    15
100
AcDbSpline
210
0.0
220
0.0
230
1.0
 70
     8
 71
     3
 72
    11
 73
     7
 74
     0
 42
0.000000001
 43
0.00000001
 40
0.0
 40
0.0
 40
0.0
 40
0.0
 40
0.0550559899854547
 40
0.5238165429358151
 40
0.9922556805754867
 40
1.0
 40
1.0
 40
1.0
 40
1.0
 10
-19.50394875296861
 20
-183.0262937125592
 30
0.0
 10
-19.57866077919579
 20
-183.0856608220373
 30
0.0
 10
-20.2894897971535
 20
-183.6504944406704
 30
0.0
 10
-21.41378456400276
 20
-184.961923413463
 30
0.0
 10
-22.46398348339558
 20
-186.2311315688628
 30
0.0
 10
-22.85950121065677
 20
-186.9545941549908
 30
0.0
 10
-22.86593363826955
 20
-186.9663600516753
 30
0.0
  0
SPLINE
  5
1D2
330
1C1
100
AcDbEntity
 67
     1
  8
0
  6
Continuous
 62
     7
370
    15
100
AcDbSpline
210
0.0
220
0.0
230
1.0
 70
     8
 71
     3
 72
    10
 73
     6
 74
     0
 42
0.000000001
 43
0.00000001
 40
0.0
 40
0.0
 40
0.0
 40
0.0
 40
0.3127990634141036
 40
0.6908502632305867
 40
1.0
 40
1.0
 40
1.0
 40
1.0
 10
10.11351043934265
 20
-174.8537963314327
 30
0.0
 10
10.73962652623535
 20
-175.2947919712311
 30
0.0
 10
12.12247102302363
 20
-176.2687781159239
 30
0.0
 10
13.89728806130312
 20
-177.8425496171547
 30
0.0
 10
14.9460936382494
 20
-179.005661991092
 30
0.0
 10
15.41791774495987
 20
-179.5289090722475
 30
0.0
  0
SPLINE
  5
1D3
330
1C1
100
AcDbEntity
 67
     1
  8
0
  6
Continuous
 62
     7
370
    15
100
AcDbSpline
210
0.0
220
0.0
230
1.0
 70
     8
 71
     3
 72
    10
 73
     6
 74
     0
 42
0.000000001
 43
0.00000001
 40
0.0
 40
0.0
 40
0.0
 40
0.0
 40
0.2391457043940535
 40
0.6303402848544759
 40
1.0
 40
1.0
 40
1.0
 40
1.0
 10
-29.43413201016723
 20
-179.5577711996955
 30
0.0
 10
-29.07688041258844
 20
-179.1463130764041
 30
0.0
 10
-28.1352365960996
 20
-178.061791691007
 30
0.0
 10
-26.37276523592238
 20
-176.464313600035
 30
0.0
 10
-24.85945234701537
 20
-175.3712403334007
 30
0.0
 10
-24.12421195385456
 20
-174.840172618188
 30
0.0
  0
SPLINE
  5
1DE
330
1C1
100
AcDbEntity
 67
     1
  8
0
  6
Continuous
 62
     7
370
    15
100
AcDbSpline
210
0.0
220
0.0
230
1.0
 70
     8
 71
     3
 72
    26
 73
    22
 74
     0
 42
0.000000001
 43
0.00000001
 40
0.0
 40
0.0
 40
0.0
 40
0.0
 40
0.0061499712389285
 40
0.0631311717857149
 40
0.1200301788248043
 40
0.1768396272550462
 40
0.2335533957495337
 40
0.2901667283088129
 40
0.3466763532584847
 40
0.4030805967331602
 40
0.4593794864888694
 40
0.5155748406618302
 40
0.5716703349485991
 40
0.627671540765515
 40
0.6835859264273562
 40
0.7394228134553271
 40
0.7951932809539045
 40
0.8509100127095999
 40
0.9065870842904635
 40
0.9622396908787942
 40
1.0
 40
1.0
 40
1.0
 40
1.0
 10
59.97701662582359
 20
-198.0004140252399
 30
0.0
 10
59.93163974431866
 20
-197.8360567873592
 30
0.0
 10
59.4658333868425
 20
-196.1488838534125
 30
0.0
 10
58.29519737904461
 20
-193.0255218031196
 30
0.0
 10
56.45278967127768
 20
-188.6638270016255
 30
0.0
 10
54.29726751966135
 20
-184.4496636674755
 30
0.0
 10
51.8780936195277
 20
-180.3903863205653
 30
0.0
 10
49.196157686798
 20
-176.5067542547719
 30
0.0
 10
46.26673780710508
 20
-172.8148512860356
 30
0.0
 10
43.10257836862034
 20
-169.3308363012895
 30
0.0
 10
39.71831515901354
 20
-166.0696014625752
 30
0.0
 10
36.12919299925493
 20
-163.0450650705014
 30
0.0
 10
32.35130604524503
 20
-160.2700478714285
 30
0.0
 10
28.40143486075713
 20
-157.7562302561513
 30
0.0
 10
24.29697900320123
 20
-155.5142454652564
 30
0.0
 10
20.05591818620174
 20
-153.5531918938976
 30
0.0
 10
15.6965799822388
 20
-151.8823674326185
 30
0.0
 10
11.23817359283952
 20
-150.5047428616176
 30
0.0
 10
6.698483514279052
 20
-149.4412429478955
 30
0.0
 10
2.594467223022718
 20
-148.7259795802026
 30
0.0
 10
-0.0036939068752597
 20
-148.501275188676
 30
0.0
 10
-1.053948752968594
 20
-148.4104429175657
 30
0.0
  0
SPLINE
  5
1DF
330
1C1
100
AcDbEntity
 67
     1
  8
0
  6
Continuous
 62
     7
370
    15
100
AcDbSpline
210
0.0
220
0.0
230
1.0
 70
     8
 71
     3
 72
    25
 73
    21
 74
     0
 42
0.000000001
 43
0.00000001
 40
0.0
 40
0.0
 40
0.0
 40
0.0
 40
0.0414130961665531
 40
0.0972167242244942
 40
0.1530848565490819
 40
0.2090302281504091
 40
0.26506381838041
 40
0.3211946044323966
 40
0.3774293869917042
 40
0.4337726913796529
 40
0.4902267426859342
 40
0.5467915091299016
 40
0.6034648046036067
 40
0.6602424392369686
 40
0.71711840592076
 40
0.7740850909083681
 40
0.8311334976673938
 40
0.8882534747900618
 40
0.9454339407180089
 40
1.0
 40
1.0
 40
1.0
 40
1.0
 10
-13.05394875296861
 20
-148.4149531059635
 30
0.0
 10
-14.20447090483419
 20
-148.5204498945099
 30
0.0
 10
-16.90530723695132
 20
-148.7681022834412
 30
0.0
 10
-21.11232843512566
 20
-149.5231091765447
 30
0.0
 10
-25.65757490881167
 20
-150.6179580857587
 30
0.0
 10
-30.12226468771166
 20
-152.0277382353704
 30
0.0
 10
-34.48790459600623
 20
-153.7334976288004
 30
0.0
 10
-38.73465455325162
 20
-155.7319915690881
 30
0.0
 10
-42.84346418573785
 20
-158.0140662110047
 30
0.0
 10
-46.79562037764413
 20
-160.5704628728664
 30
0.0
 10
-50.57300028490593
 20
-163.3902703338014
 30
0.0
 10
-54.15813514988497
 20
-166.461369029269
 30
0.0
 10
-57.53434906521777
 20
-169.7703501513971
 30
0.0
 10
-60.68579743161761
 20
-173.3026173605608
 30
0.0
 10
-63.59782633745142
 20
-177.0423652150769
 30
0.0
 10
-66.25612405876427
 20
-180.9729474308851
 30
0.0
 10
-68.65035704140587
 20
-185.0758796297427
 30
0.0
 10
-70.76099524194655
 20
-189.3349897426135
 30
0.0
 10
-72.5802548085008
 20
-193.6532652971624
 30
0.0
 10
-73.5373990191689
 20
-196.5990107720942
 30
0.0
 10
-74.00477451601421
 20
-198.0374243774642
 30
0.0
  0
LWPOLYLINE
  5
1E4
330
1C1
100
AcDbEntity
 67
     1
  8
0
  6
Continuous
 62
     7
370
    15
100
AcDbPolyline
 90
       56
 70
   128
 43
0.0
 10
-34.3137219673
 20
-188.168905086
 10
-34.1357096379
 20
-185.103120207
 10
-33.6039933127
 20
-182.0773025224
 10
-32.7255047271
 20
-179.1308981931
 10
-31.5116963234
 20
-176.3023181055
 10
-29.9783919503
 20
-173.6284371268
 10
-28.1455805753
 20
-171.1441133847
 10
-26.0371556975
 20
-168.8817338385
 10
-23.6806038596
 20
-166.8707920654
 10
-21.1066463188
 20
-165.1375037669
 10
-18.3488385479
 20
-163.7044650065
 10
-15.4431327887
 20
-162.5903576361
 10
-12.4274093596
 20
-161.8097057491
 10
-9.3409828273
 20
-161.3726863366
 10
-6.2240894819
 20
-161.284996615
 10
-3.1173627947
 20
-161.547779754
 10
-0.0613036992
 20
-162.1576099735
 10
2.9042474006
 20
-163.1065372039
 10
5.7406300109
 20
-164.3821907276
 10
8.4108675466
 20
-165.9679404501
 10
10.880149378
 20
-167.8431136986
 10
13.1162846401
 20
-169.9832647221
 10
15.0901218899
 20
-172.3604933791
 10
16.7759291404
 20
-174.9438088586
 10
18.1517293159
 20
-177.6995336926
 10
19.1995867572
 20
-180.5917427935
 10
19.9058410399
 20
-183.5827317927
 10
20.2612850594
 20
-186.6335085744
 10
20.2612850594
 20
-189.7043015977
 10
19.9058410399
 20
-192.7550783794
 10
19.1995867572
 20
-195.7460673786
 10
18.1517293159
 20
-198.6382764795
 10
16.7759291404
 20
-201.3940013135
 10
15.0901218899
 20
-203.9773167929
 10
13.1162846401
 20
-206.3545454499
 10
10.880149378
 20
-208.4946964734
 10
8.4108675466
 20
-210.3698697219
 10
5.7406300109
 20
-211.9556194444
 10
2.9042474006
 20
-213.2312729681
 10
-0.0613036992
 20
-214.1802001985
 10
-3.1173627947
 20
-214.790030418
 10
-6.2240894819
 20
-215.052813557
 10
-9.3409828273
 20
-214.9651238355
 10
-12.4274093596
 20
-214.528104423
 10
-15.4431327887
 20
-213.7474525359
 10
-18.3488385479
 20
-212.6333451655
 10
-21.1066463188
 20
-211.2003064052
 10
-23.6806038596
 20
-209.4670181066
 10
-26.0371556975
 20
-207.4560763335
 10
-28.1455805753
 20
-205.1936967874
 10
-29.9783919503
 20
-202.7093730453
 10
-31.5116963234
 20
-200.0354920666
 10
-32.7255047271
 20
-197.206911979
 10
-33.6039933127
 20
-194.2605076497
 10
-34.1357096379
 20
-191.2346899651
 10
-34.3137219673
 20
-188.168905086
  0
LWPOLYLINE
  5
1E5
330
1C1
100
AcDbEntity
 67
     1
  8
0
  6
Continuous
 62
     7
370
    15
100
AcDbPolyline
 90
       55
 70
   128
 43
0.0
 10
-33.7540658093
 20
-188.1865794963
 10
-33.5731910874
 20
-185.1282599626
 10
-33.0330129421
 20
-182.111298954
 10
-32.140836356
 20
-179.1764956927
 10
-30.908726487
 20
-176.3635383581
 10
-29.3533455074
 20
-173.7104673728
 10
-27.4957272768
 20
-171.2531609704
 10
-25.3609928949
 20
-169.0248500045
 10
-22.9780109822
 20
-167.0556685584
 10
-20.3790072811
 20
-165.3722464329
 10
-17.5991288582
 20
-163.9973490246
 10
-14.6759688001
 20
-162.9495694621
 10
-11.6490578322
 20
-162.2430771667
 10
-8.5593297325
 20
-161.8874262346
 10
-5.4485677734
 20
-161.8874262346
 10
-2.3588396738
 20
-162.2430771667
 10
0.6680712942
 20
-162.9495694621
 10
3.5912313522
 20
-163.9973490246
 10
6.3711097752
 20
-165.3722464329
 10
8.9701134763
 20
-167.0556685584
 10
11.353095389
 20
-169.0248500045
 10
13.4878297708
 20
-171.2531609704
 10
15.3454480015
 20
-173.7104673728
 10
16.9008289811
 20
-176.3635383581
 10
18.13293885
 20
-179.1764956927
 10
19.0251154361
 20
-182.111298954
 10
19.5652935815
 20
-185.1282599626
 10
19.7461683034
 20
-188.1865794963
 10
19.5652935815
 20
-191.2448990301
 10
19.0251154361
 20
-194.2618600387
 10
18.13293885
 20
-197.1966633
 10
16.9008289811
 20
-200.0096206346
 10
15.3454480015
 20
-202.6626916199
 10
13.4878297708
 20
-205.1199980223
 10
11.353095389
 20
-207.3483089882
 10
8.9701134763
 20
-209.3174904343
 10
6.3711097752
 20
-211.0009125598
 10
3.5912313522
 20
-212.3758099681
 10
0.6680712942
 20
-213.4235895306
 10
-2.3588396738
 20
-214.130081826
 10
-5.4485677734
 20
-214.4857327581
 10
-8.5593297325
 20
-214.4857327581
 10
-11.6490578322
 20
-214.130081826
 10
-14.6759688001
 20
-213.4235895306
 10
-17.5991288582
 20
-212.3758099681
 10
-20.3790072811
 20
-211.0009125597
 10
-22.9780109822
 20
-209.3174904343
 10
-25.3609928949
 20
-207.3483089882
 10
-27.4957272768
 20
-205.1199980223
 10
-29.3533455074
 20
-202.6626916199
 10
-30.908726487
 20
-200.0096206346
 10
-32.140836356
 20
-197.1966633
 10
-33.0330129421
 20
-194.2618600387
 10
-33.5731910874
 20
-191.2448990301
 10
-33.7540658093
 20
-188.1865794963
  0
SPLINE
  5
1E6
330
1C1
100
AcDbEntity
 67
     1
  8
0
  6
Continuous
 62
     7
370
    15
100
AcDbSpline
210
0.0
220
0.0
230
1.0
 70
    11
 71
     3
 72
    66
 73
    62
 74
     0
 42
0.000000001
 43
0.00000001
 40
0.0
 40
0.0
 40
0.0
 40
0.0
 40
0.03125
 40
0.03125
 40
0.0625
 40
0.0625
 40
0.09375
 40
0.09375
 40
0.1249999999999999
 40
0.1249999999999999
 40
0.1562499999999999
 40
0.1562499999999999
 40
0.1874999999999999
 40
0.1874999999999999
 40
0.2187499999999999
 40
0.2187499999999999
 40
0.2499999999999999
 40
0.2499999999999999
 40
0.2812499999999999
 40
0.2812499999999999
 40
0.3124999999999999
 40
0.3124999999999999
 40
0.3437499999999998
 40
0.3437499999999998
 40
0.3749999999999998
 40
0.3749999999999998
 40
0.4062499999999998
 40
0.4062499999999998
 40
0.4374999999999998
 40
0.4374999999999998
 40
0.4687499999999998
 40
0.4687499999999998
 40
0.4999999999999998
 40
0.4999999999999998
 40
0.5312499999999998
 40
0.5312499999999998
 40
0.5624999999999998
 40
0.5624999999999998
 40
0.6249999999999998
 40
0.6249999999999998
 40
0.6562499999999997
 40
0.6562499999999997
 40
0.6874999999999997
 40
0.6874999999999997
 40
0.7187499999999997
 40
0.7187499999999997
 40
0.7499999999999997
 40
0.7499999999999997
 40
0.7812499999999997
 40
0.7812499999999997
 40
0.8124999999999997
 40
0.8124999999999997
 40
0.8437499999999997
 40
0.8437499999999997
 40
0.8749999999999997
 40
0.8749999999999997
 40
0.9062499999999998
 40
0.9062499999999998
 40
0.9374999999999999
 40
0.9374999999999999
 40
1.0
 40
1.0
 40
1.0
 40
1.0
 10
-1.229123762598651
 20
-177.3110588123875
 30
0.0
 10
-1.094601403018224
 20
-177.185894278084
 30
0.0
 10
-0.9743964210521382
 20
-177.0498025221553
 30
0.0
 10
-0.7610319155511546
 20
-176.756980212491
 30
0.0
 10
-0.6671787103909189
 20
-176.5986483497277
 30
0.0
 10
-0.5115989870478708
 20
-176.2680812819484
 30
0.0
 10
-0.4502004455976868
 20
-176.0974181608931
 30
0.0
 10
-0.3594955948761159
 20
-175.7455597895783
 30
0.0
 10
-0.3302695239756027
 20
-175.5625445406841
 30
0.0
 10
-0.3070186437539564
 20
-175.1991286623472
 30
0.0
 10
-0.3123965858926915
 20
-175.0177395053495
 30
0.0
 10
-0.3576334964804891
 20
-174.655606599504
 30
0.0
 10
-0.3980516392553665
 20
-174.4746026698858
 30
0.0
 10
-0.5109444272844779
 20
-174.1289068951099
 30
0.0
 10
-0.5835278080306184
 20
-173.9621650622524
 30
0.0
 10
-0.7624721410878048
 20
-173.6414612139874
 30
0.0
 10
-0.8676581584442857
 20
-173.4902503865183
 30
0.0
 10
-1.10363188107235
 20
-173.2136760296694
 30
0.0
 10
-1.236056631973197
 20
-173.086274217585
 30
0.0
 10
-1.525830679131341
 20
-172.8596295999903
 30
0.0
 10
-1.679889865786268
 20
-172.7626517028531
 30
0.0
 10
-2.005997204989281
 20
-172.6007524321703
 30
0.0
 10
-2.180143306479141
 20
-172.5355034669588
 30
0.0
 10
-2.533140617423402
 20
-172.4434040172478
 30
0.0
 10
-2.712740936031053
 20
-172.4156950268031
 30
0.0
 10
-3.078190330847349
 20
-172.3972246407865
 30
0.0
 10
-3.26258335823936
 20
-172.4069931670544
 30
0.0
 10
-3.621368380889424
 20
-172.4626516129055
 30
0.0
 10
-3.7989032179549
 20
-172.508846996625
 30
0.0
 10
-4.142341208755069
 20
-172.6364008469158
 30
0.0
 10
-4.30527006555936
 20
-172.7163648268278
 30
0.0
 10
-4.61427945864431
 20
-172.9073247785945
 30
0.0
 10
-4.761451054607127
 20
-173.0196621275225
 30
0.0
 10
-5.027703474102787
 20
-173.2671492946466
 30
0.0
 10
-5.148059559700464
 20
-173.4027275007074
 30
0.0
 10
-5.363295099015327
 20
-173.6974972359217
 30
0.0
 10
-5.457208854082939
 20
-173.8560482256256
 30
0.0
 10
-5.689394450900687
 20
-174.3479919982815
 30
0.0
 10
-5.782868767795423
 20
-174.7095136849865
 30
0.0
 10
-5.818369003018046
 20
-175.2527641825302
 30
0.0
 10
-5.813186617672022
 20
-175.4369447910757
 30
0.0
 10
-5.767866647804631
 20
-175.8005066775156
 30
0.0
 10
-5.728326312537856
 20
-175.9778869378717
 30
0.0
 10
-5.615745915507134
 20
-176.3239129992367
 30
0.0
 10
-5.541546966566465
 20
-176.4942904907236
 30
0.0
 10
-5.363579442124819
 20
-176.8131242295707
 30
0.0
 10
-5.259969007089897
 20
-176.9624794141713
 30
0.0
 10
-5.022913524895745
 20
-177.2406660760045
 30
0.0
 10
-4.888794762601398
 20
-177.3693825951165
 30
0.0
 10
-4.602092162474944
 20
-177.5936978663864
 30
0.0
 10
-4.448208091412448
 20
-177.6910749247599
 30
0.0
 10
-4.118388634124141
 20
-177.8548850877106
 30
0.0
 10
-3.946790687304846
 20
-177.918980920581
 30
0.0
 10
-3.595052740912
 20
-178.0110678342318
 30
0.0
 10
-3.412096172582038
 20
-178.0394271464715
 30
0.0
 10
-3.04691664993122
 20
-178.0579015315912
 30
0.0
 10
-2.865531054221078
 20
-178.0484912298039
 30
0.0
 10
-2.505130174685443
 20
-177.9929837973483
 30
0.0
 10
-2.325832358123826
 20
-177.9462638804344
 30
0.0
 10
-1.814988441328165
 20
-177.7569731433418
 30
0.0
 10
-1.498168481759507
 20
-177.5613878809946
 30
0.0
 10
-1.229123762598651
 20
-177.3110588123875
 30
0.0
  0
SPLINE
  5
1E7
330
1C1
100
AcDbEntity
 67
     1
  8
0
  6
Continuous
 62
     7
370
    15
100
AcDbSpline
210
0.0
220
0.0
230
1.0
 70
    11
 71
     3
 72
    62
 73
    58
 74
     0
 42
0.000000001
 43
0.00000001
 40
0.0
 40
0.0
 40
0.0
 40
0.0
 40
0.0312499999999988
 40
0.0312499999999988
 40
0.0624999999999976
 40
0.0624999999999976
 40
0.0937499999999964
 40
0.0937499999999964
 40
0.1249999999999952
 40
0.1249999999999952
 40
0.156249999999994
 40
0.156249999999994
 40
0.1874999999999928
 40
0.1874999999999928
 40
0.2499999999999904
 40
0.2499999999999904
 40
0.2812499999999892
 40
0.2812499999999892
 40
0.3124999999999879
 40
0.3124999999999879
 40
0.3437499999999867
 40
0.3437499999999867
 40
0.3749999999999854
 40
0.3749999999999854
 40
0.4062499999999842
 40
0.4062499999999842
 40
0.4374999999999829
 40
0.4374999999999829
 40
0.4687499999999817
 40
0.4687499999999817
 40
0.4999999999999804
 40
0.4999999999999804
 40
0.5312499999999791
 40
0.5312499999999791
 40
0.562499999999978
 40
0.562499999999978
 40
0.6249999999999802
 40
0.6249999999999802
 40
0.6562499999999813
 40
0.6562499999999813
 40
0.6874999999999825
 40
0.6874999999999825
 40
0.7187499999999837
 40
0.7187499999999837
 40
0.7499999999999848
 40
0.7499999999999848
 40
0.8124999999999866
 40
0.8124999999999866
 40
0.8437499999999886
 40
0.8437499999999886
 40
0.8749999999999905
 40
0.8749999999999905
 40
0.9062499999999923
 40
0.9062499999999923
 40
0.9374999999999942
 40
0.9374999999999942
 40
1.0
 40
1.0
 40
1.0
 40
1.0
 10
-5.20563255875256
 20
-183.565253764809
 30
0.0
 10
-5.090911061139935
 20
-183.4456412826411
 30
0.0
 10
-4.989856990730681
 20
-183.3167934914425
 30
0.0
 10
-4.813837221713579
 20
-183.0414692650761
 30
0.0
 10
-4.738287401258448
 20
-182.8932997828024
 30
0.0
 10
-4.618354927910389
 20
-182.5871290937147
 30
0.0
 10
-4.573855878258485
 20
-182.4299672113773
 30
0.0
 10
-4.515390374465251
 20
-182.1075961020492
 30
0.0
 10
-4.501737179663859
 20
-181.9412236519381
 30
0.0
 10
-4.50675693908876
 20
-181.6140411959847
 30
0.0
 10
-4.524937861606694
 20
-181.4516767645686
 30
0.0
 10
-4.593297447887821
 20
-181.1294528878307
 30
0.0
 10
-4.643415123401867
 20
-180.9714576272783
 30
0.0
 10
-4.83595326206743
 20
-180.5209476415441
 30
0.0
 10
-5.025598937329971
 20
-180.2427666060721
 30
0.0
 10
-5.375590839835827
 20
-179.8992002599714
 30
0.0
 10
-5.505449785756098
 20
-179.7945774851165
 30
0.0
 10
-5.78048435992503
 20
-179.6148184622675
 30
0.0
 10
-5.925396498483374
 20
-179.5392797601531
 30
0.0
 10
-6.230022597932839
 20
-179.4169077296191
 30
0.0
 10
-6.390440668016693
 20
-179.3703505028168
 30
0.0
 10
-6.712268853698441
 20
-179.3106879279551
 30
0.0
 10
-6.875358532568967
 20
-179.2967406263174
 30
0.0
 10
-7.206029019225449
 20
-179.3016358744981
 30
0.0
 10
-7.369953829154655
 20
-179.3206107253365
 30
0.0
 10
-7.68954628016474
 20
-179.3898536193077
 30
0.0
 10
-7.847591284216834
 20
-179.4408136363831
 30
0.0
 10
-8.149650722799276
 20
-179.5727374359344
 30
0.0
 10
-8.292294989494074
 20
-179.6527131857242
 30
0.0
 10
-8.561156340048688
 20
-179.8401176934019
 30
0.0
 10
-8.688142763123233
 20
-179.9487325008061
 30
0.0
 10
-8.914974486092568
 20
-180.1850818023653
 30
0.0
 10
-9.016179326127451
 20
-180.3134668805212
 30
0.0
 10
-9.193842290863381
 20
-180.5909290725335
 30
0.0
 10
-9.269076164134566
 20
-180.7387130018332
 30
0.0
 10
-9.448197262222681
 20
-181.1948694676271
 30
0.0
 10
-9.508357509376568
 20
-181.5258886347558
 30
0.0
 10
-9.501356720890863
 20
-182.0161329454683
 30
0.0
 10
-9.48286530458043
 20
-182.1817562502697
 30
0.0
 10
-9.414759649839896
 20
-182.5028653169385
 30
0.0
 10
-9.365579913936566
 20
-182.6585727395249
 30
0.0
 10
-9.236967801279103
 20
-182.960293918012
 30
0.0
 10
-9.15683369662216
 20
-183.1066684249608
 30
0.0
 10
-8.972529173761126
 20
-183.3768576699835
 30
0.0
 10
-8.867788738482234
 20
-183.5024088190773
 30
0.0
 10
-8.51457245830319
 20
-183.8494994647416
 30
0.0
 10
-8.236645753226599
 20
-184.0315924233933
 30
0.0
 10
-7.777114662585783
 20
-184.2161746033921
 30
0.0
 10
-7.620002378001294
 20
-184.2617641916164
 30
0.0
 10
-7.298080828533959
 20
-184.3217707126244
 30
0.0
 10
-7.131519371781145
 20
-184.3359662359141
 30
0.0
 10
-6.803456143197568
 20
-184.331148287337
 30
0.0
 10
-6.640989792085806
 20
-184.3126591918908
 30
0.0
 10
-6.319215806718399
 20
-184.2432310850021
 30
0.0
 10
-6.160807800279108
 20
-184.1920522775075
 30
0.0
 10
-5.711084797979923
 20
-183.9960605309982
 30
0.0
 10
-5.435075553977841
 20
-183.8044787291448
 30
0.0
 10
-5.205632558752561
 20
-183.565253764809
 30
0.0
  0
SPLINE
  5
1E8
330
1C1
100
AcDbEntity
 67
     1
  8
0
  6
Continuous
 62
     7
370
    15
100
AcDbSpline
210
0.0
220
0.0
230
1.0
 70
    11
 71
     3
 72
    68
 73
    64
 74
     0
 42
0.000000001
 43
0.00000001
 40
0.0
 40
0.0
 40
0.0
 40
0.0
 40
0.0312500000000007
 40
0.0312500000000007
 40
0.0625000000000014
 40
0.0625000000000014
 40
0.0937500000000021
 40
0.0937500000000021
 40
0.1250000000000027
 40
0.1250000000000027
 40
0.1562500000000034
 40
0.1562500000000034
 40
0.1875000000000041
 40
0.1875000000000041
 40
0.2187500000000048
 40
0.2187500000000048
 40
0.2500000000000055
 40
0.2500000000000055
 40
0.2812500000000062
 40
0.2812500000000062
 40
0.3125000000000069
 40
0.3125000000000069
 40
0.3437500000000075
 40
0.3437500000000075
 40
0.3750000000000082
 40
0.3750000000000082
 40
0.4062500000000089
 40
0.4062500000000089
 40
0.4375000000000096
 40
0.4375000000000096
 40
0.4687500000000103
 40
0.4687500000000103
 40
0.500000000000011
 40
0.500000000000011
 40
0.5312500000000117
 40
0.5312500000000117
 40
0.5625000000000123
 40
0.5625000000000123
 40
0.6250000000000137
 40
0.6250000000000137
 40
0.6562500000000125
 40
0.6562500000000125
 40
0.6875000000000114
 40
0.6875000000000114
 40
0.7187500000000103
 40
0.7187500000000103
 40
0.7500000000000092
 40
0.7500000000000092
 40
0.7812500000000082
 40
0.7812500000000082
 40
0.8125000000000071
 40
0.8125000000000071
 40
0.843750000000006
 40
0.843750000000006
 40
0.8750000000000049
 40
0.8750000000000049
 40
0.9062500000000037
 40
0.9062500000000037
 40
0.9375000000000026
 40
0.9375000000000026
 40
0.9687500000000013
 40
0.9687500000000013
 40
1.0
 40
1.0
 40
1.0
 40
1.0
 10
-4.562838692689697
 20
-169.3481854614621
 30
0.0
 10
-4.373453816245727
 20
-169.1768889386859
 30
0.0
 10
-4.204835597164939
 20
-168.9901288316917
 30
0.0
 10
-3.905611642186812
 20
-168.5883322824026
 30
0.0
 10
-3.774089180610053
 20
-168.3711761043184
 30
0.0
 10
-3.554837630093679
 20
-167.91823465795
 30
0.0
 10
-3.467571627305725
 20
-167.6845386102794
 30
0.0
 10
-3.335722123038232
 20
-167.203374431792
 30
0.0
 10
-3.291196203420631
 20
-166.9536844560313
 30
0.0
 10
-3.248053647404653
 20
-166.4569691304371
 30
0.0
 10
-3.248698892224628
 20
-166.2087025312974
 30
0.0
 10
-3.294344302328138
 20
-165.712352599464
 30
0.0
 10
-3.340102894228693
 20
-165.463068676274
 30
0.0
 10
-3.473813347027529
 20
-164.9836783736588
 30
0.0
 10
-3.561734820080393
 20
-164.751237027087
 30
0.0
 10
-3.781323821037878
 20
-164.3013972557365
 30
0.0
 10
-3.913849823078979
 20
-164.0838437770713
 30
0.0
 10
-4.213500373010487
 20
-163.6835297698314
 30
0.0
 10
-4.381652233959779
 20
-163.4981700452465
 30
0.0
 10
-4.757195475480668
 20
-163.159098321096
 30
0.0
 10
-4.963840802814983
 20
-163.0070188680533
 30
0.0
 10
-5.398462513821327
 20
-162.7512416473246
 30
0.0
 10
-5.628565417930349
 20
-162.6454226939813
 30
0.0
 10
-6.116714438729936
 20
-162.481964416676
 30
0.0
 10
-6.365538387226162
 20
-162.4274899513385
 30
0.0
 10
-6.871075919706955
 20
-162.3721759009341
 30
0.0
 10
-7.131364042518614
 20
-162.3718907843607
 30
0.0
 10
-7.639317403996497
 20
-162.4268502883764
 30
0.0
 10
-7.887806355221395
 20
-162.4811860695475
 30
0.0
 10
-8.373877396280928
 20
-162.6432501625597
 30
0.0
 10
-8.607401107328409
 20
-162.7501480230206
 30
0.0
 10
-9.043854638802298
 20
-163.0067971522952
 30
0.0
 10
-9.250851394651548
 20
-163.1592086261972
 30
0.0
 10
-9.626504201272917
 20
-163.4984284082229
 30
0.0
 10
-9.795400930758394
 20
-163.6845172906339
 30
0.0
 10
-10.09704130424304
 20
-164.0882012663779
 30
0.0
 10
-10.22894215478665
 20
-164.3056491094715
 30
0.0
 10
-10.55688929011024
 20
-164.9792822218629
 30
0.0
 10
-10.69223035782576
 20
-165.4720970322761
 30
0.0
 10
-10.75933473668162
 20
-166.2144607240014
 30
0.0
 10
-10.75970966793191
 20
-166.4654597604803
 30
0.0
 10
-10.71504453084431
 20
-166.9655255793809
 30
0.0
 10
-10.67064776056551
 20
-167.210413732325
 30
0.0
 10
-10.5384045452096
 20
-167.69004692485
 30
0.0
 10
-10.44954552748188
 20
-167.9268127392181
 30
0.0
 10
-10.22911730640931
 20
-168.379498994488
 30
0.0
 10
-10.09919394904786
 20
-168.5930745175618
 30
0.0
 10
-9.799461109414484
 20
-168.9943601973554
 30
0.0
 10
-9.627285577880395
 20
-169.1840719926917
 30
0.0
 10
-9.250905859798598
 20
-169.5230631975525
 30
0.0
 10
-9.04786307086969
 20
-169.6722780120856
 30
0.0
 10
-8.611192740657728
 20
-169.9289168375774
 30
0.0
 10
-8.374896385892752
 20
-170.0367418142102
 30
0.0
 10
-7.892403369433175
 20
-170.1974670259245
 30
0.0
 10
-7.644224914985057
 20
-170.2521222623706
 30
0.0
 10
-7.133379888642368
 20
-170.3076899900744
 30
0.0
 10
-6.875374909570549
 20
-170.3075530965459
 30
0.0
 10
-6.3691426402837
 20
-170.2529445605845
 30
0.0
 10
-6.115644177335652
 20
-170.1976000056064
 30
0.0
 10
-5.630735905521071
 20
-170.0359038775979
 30
0.0
 10
-5.399705132027307
 20
-169.9305503254876
 30
0.0
 10
-4.959824346575195
 20
-169.6722835983748
 30
0.0
 10
-4.752223569133654
 20
-169.5194819842382
 30
0.0
 10
-4.562838692689697
 20
-169.3481854614621
 30
0.0
  0
SPLINE
  5
1E9
330
1C1
100
AcDbEntity
 67
     1
  8
0
  6
Continuous
 62
     7
370
    15
100
AcDbSpline
210
0.0
220
0.0
230
1.0
 70
    11
 71
     3
 72
    66
 73
    62
 74
     0
 42
0.000000001
 43
0.00000001
 40
0.0
 40
0.0
 40
0.0
 40
0.0
 40
0.0624999999999971
 40
0.0624999999999971
 40
0.0937499999999972
 40
0.0937499999999972
 40
0.1249999999999974
 40
0.1249999999999974
 40
0.1562499999999975
 40
0.1562499999999975
 40
0.1874999999999976
 40
0.1874999999999976
 40
0.2187499999999978
 40
0.2187499999999978
 40
0.2499999999999979
 40
0.2499999999999979
 40
0.2812499999999981
 40
0.2812499999999981
 40
0.3124999999999982
 40
0.3124999999999982
 40
0.3437499999999984
 40
0.3437499999999984
 40
0.3749999999999985
 40
0.3749999999999985
 40
0.4062499999999987
 40
0.4062499999999987
 40
0.4374999999999988
 40
0.4374999999999988
 40
0.4687499999999989
 40
0.4687499999999989
 40
0.4999999999999991
 40
0.4999999999999991
 40
0.5312499999999992
 40
0.5312499999999992
 40
0.5624999999999993
 40
0.5624999999999993
 40
0.5937499999999993
 40
0.5937499999999993
 40
0.6249999999999994
 40
0.6249999999999994
 40
0.6562499999999996
 40
0.6562499999999996
 40
0.6874999999999997
 40
0.6874999999999997
 40
0.7187499999999998
 40
0.7187499999999998
 40
0.7499999999999999
 40
0.7499999999999999
 40
0.78125
 40
0.78125
 40
0.8125000000000002
 40
0.8125000000000002
 40
0.8437500000000004
 40
0.8437500000000004
 40
0.8750000000000007
 40
0.8750000000000007
 40
0.9062500000000009
 40
0.9062500000000009
 40
0.937500000000001
 40
0.937500000000001
 40
1.0
 40
1.0
 40
1.0
 40
1.0
 10
6.854032160880159
 20
-172.0391369188648
 30
0.0
 10
7.198638612352638
 20
-171.6779893420066
 30
0.0
 10
7.469478705819326
 20
-171.2636294430234
 30
0.0
 10
7.762535861536624
 20
-170.5724609872158
 30
0.0
 10
7.838554007275286
 20
-170.3360504810655
 30
0.0
 10
7.948223099754995
 20
-169.8514466606962
 30
0.0
 10
7.98194542977914
 20
-169.6013241915678
 30
0.0
 10
8.002982801847484
 20
-169.0971131551093
 30
0.0
 10
7.990509658109905
 20
-168.8467568048498
 30
0.0
 10
7.919227317189902
 20
-168.3495489230956
 30
0.0
 10
7.859416875741869
 20
-168.0999602137607
 30
0.0
 10
7.692758102493833
 20
-167.6188035137225
 30
0.0
 10
7.587147550109145
 20
-167.3888803828351
 30
0.0
 10
7.330170416754846
 20
-166.950903186972
 30
0.0
 10
7.176423256946615
 20
-166.7407373836563
 30
0.0
 10
6.833919943062483
 20
-166.3631985740148
 30
0.0
 10
6.644717488121064
 20
-166.1938178885286
 30
0.0
 10
6.229008952704396
 20
-165.8953510659245
 30
0.0
 10
6.004573415470997
 20
-165.7686176356524
 30
0.0
 10
5.540174577174466
 20
-165.568721213385
 30
0.0
 10
5.294949036139696
 20
-165.4933426512333
 30
0.0
 10
4.798322446755449
 20
-165.3977971021485
 30
0.0
 10
4.548736316008974
 20
-165.3772195335676
 30
0.0
 10
4.04709479228112
 20
-165.3883200753731
 30
0.0
 10
3.796204142840458
 20
-165.4206485641609
 30
0.0
 10
3.313090784590668
 20
-165.533265130078
 30
0.0
 10
3.076568357888051
 20
-165.6142709978344
 30
0.0
 10
2.623691570070593
 20
-165.8210467701504
 30
0.0
 10
2.410471396264734
 20
-165.9449826736806
 30
0.0
 10
2.008882845828999
 20
-166.2315467812157
 30
0.0
 10
1.819224544139271
 20
-166.395910183374
 30
0.0
 10
1.477194225592941
 20
-166.7522718644414
 30
0.0
 10
1.323427876976776
 20
-166.944807776222
 30
0.0
 10
1.050046062855168
 20
-167.3583150561665
 30
0.0
 10
0.9305877341080071
 20
-167.5801434119388
 30
0.0
 10
0.7353624798664823
 20
-168.0359513951184
 30
0.0
 10
0.6581195539940299
 20
-168.2718462633693
 30
0.0
 10
0.5457240062298032
 20
-168.7601340255347
 30
0.0
 10
0.5112747380992102
 20
-169.0120896664175
 30
0.0
 10
0.4889857935777182
 20
-169.51226614585
 30
0.0
 10
0.500423959179497
 20
-169.7630215022039
 30
0.0
 10
0.5715244359824163
 20
-170.2659346128075
 30
0.0
 10
0.6314066565548193
 20
-170.5155615524751
 30
0.0
 10
0.7964142701666378
 20
-170.9935160299377
 30
0.0
 10
0.9018011068335479
 20
-171.2244629545381
 30
0.0
 10
1.162621703303656
 20
-171.6687804235287
 30
0.0
 10
1.313889204559316
 20
-171.874737454117
 30
0.0
 10
1.655327758004161
 20
-172.2512353429411
 30
0.0
 10
1.848637964352612
 20
-172.4242173668575
 30
0.0
 10
2.264049306756577
 20
-172.7220258847044
 30
0.0
 10
2.484692211739185
 20
-172.8468478395449
 30
0.0
 10
2.951821373053293
 20
-173.0483849422505
 30
0.0
 10
3.197861838967479
 20
-173.1239957766767
 30
0.0
 10
3.692053486578948
 20
-173.2197386373873
 30
0.0
 10
3.945367690765551
 20
-173.2411734195159
 30
0.0
 10
4.449444934229899
 20
-173.2304327264394
 30
0.0
 10
4.696874798761332
 20
-173.1988576093489
 30
0.0
 10
5.182993123036236
 20
-173.0861722440634
 30
0.0
 10
5.422228963690792
 20
-173.0041656257931
 30
0.0
 10
6.098449361848338
 20
-172.6955036184102
 30
0.0
 10
6.509425709407669
 20
-172.400284495723
 30
0.0
 10
6.854032160880158
 20
-172.0391369188648
 30
0.0
  0
SPLINE
  5
1EA
330
1C1
100
AcDbEntity
 67
     1
  8
0
  6
Continuous
 62
     7
370
    15
100
AcDbSpline
210
0.0
220
0.0
230
1.0
 70
    11
 71
     3
 72
    68
 73
    64
 74
     0
 42
0.000000001
 43
0.00000001
 40
0.0
 40
0.0
 40
0.0
 40
0.0
 40
0.03125
 40
0.03125
 40
0.0625
 40
0.0625
 40
0.09375
 40
0.09375
 40
0.125
 40
0.125
 40
0.15625
 40
0.15625
 40
0.1874999999999999
 40
0.1874999999999999
 40
0.2187499999999999
 40
0.2187499999999999
 40
0.2499999999999999
 40
0.2499999999999999
 40
0.2812499999999999
 40
0.2812499999999999
 40
0.3124999999999999
 40
0.3124999999999999
 40
0.3437499999999999
 40
0.3437499999999999
 40
0.3749999999999999
 40
0.3749999999999999
 40
0.4062499999999999
 40
0.4062499999999999
 40
0.4374999999999999
 40
0.4374999999999999
 40
0.4687499999999999
 40
0.4687499999999999
 40
0.4999999999999999
 40
0.4999999999999999
 40
0.5312499999999999
 40
0.5312499999999999
 40
0.5624999999999999
 40
0.5624999999999999
 40
0.5937499999999999
 40
0.5937499999999999
 40
0.6249999999999999
 40
0.6249999999999999
 40
0.6562499999999999
 40
0.6562499999999999
 40
0.6874999999999999
 40
0.6874999999999999
 40
0.7187499999999999
 40
0.7187499999999999
 40
0.7499999999999998
 40
0.7499999999999998
 40
0.7812499999999998
 40
0.7812499999999998
 40
0.8124999999999998
 40
0.8124999999999998
 40
0.8437499999999998
 40
0.8437499999999998
 40
0.8749999999999998
 40
0.8749999999999998
 40
0.9374999999999999
 40
0.9374999999999999
 40
0.9687499999999999
 40
0.9687499999999999
 40
1.0
 40
1.0
 40
1.0
 40
1.0
 10
14.88831839436624
 20
-180.2084990269508
 30
0.0
 10
15.07122596225507
 20
-180.040890310094
 30
0.0
 10
15.23734361671221
 20
-179.8586109909489
 30
0.0
 10
15.53674081632587
 20
-179.4653389418464
 30
0.0
 10
15.6708178340061
 20
-179.2527798608974
 30
0.0
 10
15.89963652959519
 20
-178.803432402994
 30
0.0
 10
15.99275950447055
 20
-178.5705391814202
 30
0.0
 10
16.13602699205454
 20
-178.0881342502853
 30
0.0
 10
16.18641082171325
 20
-177.8355645081762
 30
0.0
 10
16.23731822160468
 20
-177.3278338857369
 30
0.0
 10
16.23835493099969
 20
-177.0742707735579
 30
0.0
 10
16.19022462478799
 20
-176.5677618595025
 30
0.0
 10
16.13981684831555
 20
-176.3122924779823
 30
0.0
 10
15.99038987705454
 20
-175.8268016474459
 30
0.0
 10
15.8916423676308
 20
-175.5941625830852
 30
0.0
 10
15.6441311576039
 20
-175.1499213653509
 30
0.0
 10
15.49752353325436
 20
-174.9431628757607
 30
0.0
 10
15.1678050448728
 20
-174.5699345514841
 30
0.0
 10
14.98111243020653
 20
-174.3999945333333
 30
0.0
 10
14.58216997628514
 20
-174.1088848082704
 30
0.0
 10
14.3703165335497
 20
-173.9869479722981
 30
0.0
 10
13.92261683493653
 20
-173.7887527964834
 30
0.0
 10
13.68908554965012
 20
-173.71407199848
 30
0.0
 10
13.21735757018775
 20
-173.6146205219852
 30
0.0
 10
12.97507736216025
 20
-173.5889803466134
 30
0.0
 10
12.49169896821953
 20
-173.5861506134612
 30
0.0
 10
12.25276465305677
 20
-173.6085088571645
 30
0.0
 10
11.78009278429543
 20
-173.6984024681718
 30
0.0
 10
11.54468078927843
 20
-173.7669234551162
 30
0.0
 10
11.09512588303103
 20
-173.9444077604573
 30
0.0
 10
10.87927395911528
 20
-174.0533689604648
 30
0.0
 10
10.46538083009032
 20
-174.3116561444902
 30
0.0
 10
10.2672275543417
 20
-174.4617544020919
 30
0.0
 10
9.904277738121664
 20
-174.7916666023692
 30
0.0
 10
9.737347854233125
 20
-174.9726136274417
 30
0.0
 10
9.433743570742017
 20
-175.3677416973042
 30
0.0
 10
9.297916014688619
 20
-175.5817915963574
 30
0.0
 10
9.069378693534851
 20
-176.0264437779878
 30
0.0
 10
8.974936414075918
 20
-176.2590751408376
 30
0.0
 10
8.828587648121715
 20
-176.7464194126288
 30
0.0
 10
8.778039825346342
 20
-176.99852626503
 30
0.0
 10
8.726360435005974
 20
-177.5026297084373
 30
0.0
 10
8.724395168972228
 20
-177.7571593185311
 30
0.0
 10
8.772782250874286
 20
-178.2711456733168
 30
0.0
 10
8.822214580112567
 20
-178.5207721665838
 30
0.0
 10
8.970739139429785
 20
-179.0055372065098
 30
0.0
 10
9.071669214399392
 20
-179.2435408023708
 30
0.0
 10
9.317799019727477
 20
-179.6856337330274
 30
0.0
 10
9.46230219952597
 20
-179.8903960058852
 30
0.0
 10
9.794261065747857
 20
-180.2672888335597
 30
0.0
 10
9.980439538683452
 20
-180.4369789557459
 30
0.0
 10
10.37812463939829
 20
-180.7283914915164
 30
0.0
 10
10.5938590268593
 20
-180.8531810077726
 30
0.0
 10
11.04230412184053
 20
-181.0524165609623
 30
0.0
 10
11.27346162940749
 20
-181.1268995141258
 30
0.0
 10
11.74894739037068
 20
-181.2279663314791
 30
0.0
 10
11.99322967186422
 20
-181.25385916479
 30
0.0
 10
12.71628817358455
 20
-181.2585728465446
 30
0.0
 10
13.20173665570695
 20
-181.1643481472967
 30
0.0
 10
13.87541353241524
 20
-180.8973524621888
 30
0.0
 10
14.09407494624961
 20
-180.7865164467541
 30
0.0
 10
14.50969276291709
 20
-180.525337533791
 30
0.0
 10
14.70541082647742
 20
-180.3761077438077
 30
0.0
 10
14.88831839436624
 20
-180.2084990269509
 30
0.0
  0
SPLINE
  5
1EB
330
1C1
100
AcDbEntity
 67
     1
  8
0
  6
Continuous
 62
     7
370
    15
100
AcDbSpline
210
0.0
220
0.0
230
1.0
 70
    11
 71
     3
 72
    70
 73
    66
 74
     0
 42
0.000000001
 43
0.00000001
 40
0.0
 40
0.0
 40
0.0
 40
0.0
 40
0.03125
 40
0.03125
 40
0.0625000000000001
 40
0.0625000000000001
 40
0.0937500000000001
 40
0.0937500000000001
 40
0.1250000000000001
 40
0.1250000000000001
 40
0.1562500000000001
 40
0.1562500000000001
 40
0.1875000000000002
 40
0.1875000000000002
 40
0.2187500000000002
 40
0.2187500000000002
 40
0.2500000000000002
 40
0.2500000000000002
 40
0.2812500000000002
 40
0.2812500000000002
 40
0.3125000000000003
 40
0.3125000000000003
 40
0.3437500000000003
 40
0.3437500000000003
 40
0.3750000000000003
 40
0.3750000000000003
 40
0.4062500000000003
 40
0.4062500000000003
 40
0.4375000000000004
 40
0.4375000000000004
 40
0.4687500000000004
 40
0.4687500000000004
 40
0.5000000000000004
 40
0.5000000000000004
 40
0.5312500000000004
 40
0.5312500000000004
 40
0.5625000000000004
 40
0.5625000000000004
 40
0.5937500000000006
 40
0.5937500000000006
 40
0.6250000000000006
 40
0.6250000000000006
 40
0.6562500000000006
 40
0.6562500000000006
 40
0.6875000000000007
 40
0.6875000000000007
 40
0.7187500000000007
 40
0.7187500000000007
 40
0.7500000000000007
 40
0.7500000000000007
 40
0.7812500000000007
 40
0.7812500000000007
 40
0.8125000000000007
 40
0.8125000000000007
 40
0.8437500000000008
 40
0.8437500000000008
 40
0.8750000000000008
 40
0.8750000000000008
 40
0.9062500000000006
 40
0.9062500000000006
 40
0.9375000000000003
 40
0.9375000000000003
 40
0.9687500000000002
 40
0.9687500000000002
 40
1.0
 40
1.0
 40
1.0
 40
1.0
 10
18.13141449109015
 20
-190.9389041686898
 30
0.0
 10
18.30714181322825
 20
-190.7551446441242
 30
0.0
 10
18.4644319775644
 20
-190.5571849865012
 30
0.0
 10
18.74184052328709
 20
-190.1326140859679
 30
0.0
 10
18.8629921027576
 20
-189.9029806677602
 30
0.0
 10
19.05614649670029
 20
-189.4305082172388
 30
0.0
 10
19.12911238836295
 20
-189.187474855294
 30
0.0
 10
19.22609685863254
 20
-188.6873221779476
 30
0.0
 10
19.24908132223781
 20
-188.4313943664293
 30
0.0
 10
19.24236750069741
 20
-187.9311289596135
 30
0.0
 10
19.21285667383596
 20
-187.6812932528004
 30
0.0
 10
19.10252808579809
 20
-187.1977763876104
 30
0.0
 10
19.02309257340762
 20
-186.9676778333073
 30
0.0
 10
18.8177917716519
 20
-186.5297493132107
 30
0.0
 10
18.69112171135077
 20
-186.3220739922379
 30
0.0
 10
18.40338614172978
 20
-185.9465198767595
 30
0.0
 10
18.24044755240401
 20
-185.7753120952053
 30
0.0
 10
17.88164905981098
 20
-185.4701337616359
 30
0.0
 10
17.68970998576977
 20
-185.3391812232022
 30
0.0
 10
17.28240540902265
 20
-185.1175814813059
 30
0.0
 10
17.0649117443983
 20
-185.0265396078308
 30
0.0
 10
16.62064142197314
 20
-184.8902431369264
 30
0.0
 10
16.39310516702465
 20
-184.8440925531443
 30
0.0
 10
15.92739944539063
 20
-184.7949872099772
 30
0.0
 10
15.68854625434499
 20
-184.7925613271825
 30
0.0
 10
15.21788695160501
 20
-184.8314641577686
 30
0.0
 10
14.98386171142354
 20
-184.8723879314862
 30
0.0
 10
14.51850285892426
 20
-184.9983249949279
 30
0.0
 10
14.28801160896703
 20
-185.0836695706083
 30
0.0
 10
13.8483852856226
 20
-185.2930183555923
 30
0.0
 10
13.63686537128941
 20
-185.4175486011715
 30
0.0
 10
13.23150389422683
 20
-185.7088450902301
 30
0.0
 10
13.03990851105127
 20
-185.8746339558334
 30
0.0
 10
12.69225088407067
 20
-186.2358350530099
 30
0.0
 10
12.53410795935979
 20
-186.4326238752856
 30
0.0
 10
12.25210387598602
 20
-186.8615471562046
 30
0.0
 10
12.13245883283803
 20
-187.0876999143253
 30
0.0
 10
11.93905041766694
 20
-187.5571919525262
 30
0.0
 10
11.86413299998905
 20
-187.80443969287
 30
0.0
 10
11.76638123115083
 20
-188.3053519932982
 30
0.0
 10
11.74341564499225
 20
-188.5562068544616
 30
0.0
 10
11.74916156510004
 20
-189.0587161895187
 30
0.0
 10
11.77880190257821
 20
-189.3110608384176
 30
0.0
 10
11.88759992576874
 20
-189.7917719568904
 30
0.0
 10
11.96711590199508
 20
-190.0245984489941
 30
0.0
 10
12.17384245689214
 20
-190.4672797202409
 30
0.0
 10
12.29835859176808
 20
-190.6720822025404
 30
0.0
 10
12.58702980137245
 20
-191.0506383201332
 30
0.0
 10
12.75272925571291
 20
-191.2250826705676
 30
0.0
 10
13.10979549189154
 20
-191.5297221628611
 30
0.0
 10
13.30232588509525
 20
-191.6619267651188
 30
0.0
 10
13.71483728563668
 20
-191.8867902246626
 30
0.0
 10
13.93093176173246
 20
-191.9770714188221
 30
0.0
 10
14.37530865677787
 20
-192.1134984474997
 30
0.0
 10
14.60624027851649
 20
-192.160312644607
 30
0.0
 10
15.07498895425006
 20
-192.2089401540334
 30
0.0
 10
15.30986158512118
 20
-192.2107970352791
 30
0.0
 10
15.78055938066134
 20
-192.1710857862455
 30
0.0
 10
16.01867614371035
 20
-192.12878344653
 30
0.0
 10
16.48305545623809
 20
-192.0014478524204
 30
0.0
 10
16.70890345691644
 20
-191.9170809967727
 30
0.0
 10
17.14786923608217
 20
-191.7067180272039
 30
0.0
 10
17.36284937038775
 20
-191.579213616109
 30
0.0
 10
17.76638289666132
 20
-191.2871141242723
 30
0.0
 10
17.95568716895205
 20
-191.1226636932553
 30
0.0
 10
18.13141449109015
 20
-190.9389041686898
 30
0.0
  0
SPLINE
  5
1EC
330
1C1
100
AcDbEntity
 67
     1
  8
0
  6
Continuous
 62
     7
370
    15
100
AcDbSpline
210
0.0
220
0.0
230
1.0
 70
    11
 71
     3
 72
    70
 73
    66
 74
     0
 42
0.000000001
 43
0.00000001
 40
0.0
 40
0.0
 40
0.0
 40
0.0
 40
0.0312499999999999
 40
0.0312499999999999
 40
0.0624999999999998
 40
0.0624999999999998
 40
0.0937499999999996
 40
0.0937499999999996
 40
0.1249999999999995
 40
0.1249999999999995
 40
0.1562499999999994
 40
0.1562499999999994
 40
0.1874999999999993
 40
0.1874999999999993
 40
0.2187499999999992
 40
0.2187499999999992
 40
0.2499999999999992
 40
0.2499999999999992
 40
0.2812499999999993
 40
0.2812499999999993
 40
0.3124999999999994
 40
0.3124999999999994
 40
0.3437499999999995
 40
0.3437499999999995
 40
0.3749999999999996
 40
0.3749999999999996
 40
0.4062499999999997
 40
0.4062499999999997
 40
0.4374999999999998
 40
0.4374999999999998
 40
0.4687499999999999
 40
0.4687499999999999
 40
0.5
 40
0.5
 40
0.5312500000000001
 40
0.5312500000000001
 40
0.5625000000000002
 40
0.5625000000000002
 40
0.5937500000000003
 40
0.5937500000000003
 40
0.6250000000000004
 40
0.6250000000000004
 40
0.6562500000000006
 40
0.6562500000000006
 40
0.6875000000000007
 40
0.6875000000000007
 40
0.7187500000000008
 40
0.7187500000000008
 40
0.7500000000000008
 40
0.7500000000000008
 40
0.7812500000000007
 40
0.7812500000000007
 40
0.8125000000000006
 40
0.8125000000000006
 40
0.8437500000000004
 40
0.8437500000000004
 40
0.8750000000000003
 40
0.8750000000000003
 40
0.9062500000000002
 40
0.9062500000000002
 40
0.9375000000000001
 40
0.9375000000000001
 40
0.96875
 40
0.96875
 40
1.0
 40
1.0
 40
1.0
 40
1.0
 10
15.09564792487438
 20
-201.967405115527
 30
0.0
 10
15.27946749204454
 20
-201.7862796514152
 30
0.0
 10
15.44262043415708
 20
-201.591111488057
 30
0.0
 10
15.72842223696522
 20
-201.1732607936187
 30
0.0
 10
15.85175331246963
 20
-200.947937780982
 30
0.0
 10
16.04575166519731
 20
-200.4892900825561
 30
0.0
 10
16.11812346581114
 20
-200.2543485484154
 30
0.0
 10
16.2133336046544
 20
-199.773143833277
 30
0.0
 10
16.23466402727609
 20
-199.5335875211918
 30
0.0
 10
16.22788797869889
 20
-199.0616422586103
 30
0.0
 10
16.19914669451342
 20
-198.8261079998547
 30
0.0
 10
16.09548444465806
 20
-198.3769113175598
 30
0.0
 10
16.02104632221174
 20
-198.1619835223287
 30
0.0
 10
15.82844584698823
 20
-197.7507573860499
 30
0.0
 10
15.71078791545351
 20
-197.5565856123081
 30
0.0
 10
15.4416441323796
 20
-197.2003936850181
 30
0.0
 10
15.28882134016429
 20
-197.0361456372175
 30
0.0
 10
14.94943202288345
 20
-196.7386763186599
 30
0.0
 10
14.76667035190835
 20
-196.6085903015814
 30
0.0
 10
14.3761544215998
 20
-196.3840574446368
 30
0.0
 10
14.16654296151961
 20
-196.2890260787441
 30
0.0
 10
13.72974229921443
 20
-196.1397782816662
 30
0.0
 10
13.50476034285729
 20
-196.0858853983587
 30
0.0
 10
13.04172924178402
 20
-196.0193455605427
 30
0.0
 10
12.80109368475456
 20
-196.0068776966447
 30
0.0
 10
12.31934287280665
 20
-196.0266919794326
 30
0.0
 10
12.07932534231056
 20
-196.0583773426955
 30
0.0
 10
11.60108655211224
 20
-196.1662897803557
 30
0.0
 10
11.36005333150888
 20
-196.2439107589234
 30
0.0
 10
10.89857816116644
 20
-196.4413231711911
 30
0.0
 10
10.67731439191578
 20
-196.5606383768344
 30
0.0
 10
10.25453169084468
 20
-196.8421712487282
 30
0.0
 10
10.0523033449345
 20
-197.0059256783531
 30
0.0
 10
9.689238680240836
 20
-197.3623431070397
 30
0.0
 10
9.52555541738677
 20
-197.5565207271092
 30
0.0
 10
9.235897851584081
 20
-197.9786158999459
 30
0.0
 10
9.114500486235233
 20
-198.200241901765
 30
0.0
 10
8.919838732381724
 20
-198.6583583805109
 30
0.0
 10
8.84566610074186
 20
-198.8986758832943
 30
0.0
 10
8.750642230294147
 20
-199.3772367570664
 30
0.0
 10
8.72873324289123
 20
-199.6163179967885
 30
0.0
 10
8.73511527252543
 20
-200.0940495043569
 30
0.0
 10
8.763756567280963
 20
-200.3287911343464
 30
0.0
 10
8.867213781201578
 20
-200.7793328157264
 30
0.0
 10
8.943108259827346
 20
-200.9989773821862
 30
0.0
 10
9.136561695650743
 20
-201.4119183015399
 30
0.0
 10
9.253207429814148
 20
-201.604624983856
 30
0.0
 10
9.524493858846613
 20
-201.9637135012604
 30
0.0
 10
9.680227228134616
 20
-202.1304588469262
 30
0.0
 10
10.01782508037629
 20
-202.4256615402889
 30
0.0
 10
10.20079268135866
 20
-202.5559195035405
 30
0.0
 10
10.59508453320165
 20
-202.7816880133695
 30
0.0
 10
10.80534069909255
 20
-202.876066204114
 30
0.0
 10
11.23883139215785
 20
-203.0229709553948
 30
0.0
 10
11.4637826567616
 20
-203.0765550033084
 30
0.0
 10
11.9308645365644
 20
-203.1421883633339
 30
0.0
 10
12.16948641492558
 20
-203.1534152471037
 30
0.0
 10
12.64635174017403
 20
-203.1323988842798
 30
0.0
 10
12.88619919375184
 20
-203.100429715736
 30
0.0
 10
13.36901426199677
 20
-202.9899286451577
 30
0.0
 10
13.60560746212742
 20
-202.9126496633905
 30
0.0
 10
14.06326233602283
 20
-202.7158324782261
 30
0.0
 10
14.28646033248616
 20
-202.5953375406132
 30
0.0
 10
14.71280506985331
 20
-202.3101816549447
 30
0.0
 10
14.91182835770423
 20
-202.1485305796387
 30
0.0
 10
15.09564792487438
 20
-201.967405115527
 30
0.0
  0
SPLINE
  5
1ED
330
1C1
100
AcDbEntity
 67
     1
  8
0
  6
Continuous
 62
     7
370
    15
100
AcDbSpline
210
0.0
220
0.0
230
1.0
 70
    11
 71
     3
 72
    66
 73
    62
 74
     0
 42
0.000000001
 43
0.00000001
 40
0.0
 40
0.0
 40
0.0
 40
0.0
 40
0.0312500000000027
 40
0.0312500000000027
 40
0.0625000000000054
 40
0.0625000000000054
 40
0.0937500000000081
 40
0.0937500000000081
 40
0.1250000000000108
 40
0.1250000000000108
 40
0.1875000000000128
 40
0.1875000000000128
 40
0.2187500000000125
 40
0.2187500000000125
 40
0.2500000000000122
 40
0.2500000000000122
 40
0.2812500000000119
 40
0.2812500000000119
 40
0.3125000000000116
 40
0.3125000000000116
 40
0.3437500000000112
 40
0.3437500000000112
 40
0.3750000000000107
 40
0.3750000000000107
 40
0.4062500000000102
 40
0.4062500000000102
 40
0.4375000000000098
 40
0.4375000000000098
 40
0.4687500000000093
 40
0.4687500000000093
 40
0.5000000000000088
 40
0.5000000000000088
 40
0.5312500000000083
 40
0.5312500000000083
 40
0.562500000000008
 40
0.562500000000008
 40
0.5937500000000077
 40
0.5937500000000077
 40
0.6250000000000073
 40
0.6250000000000073
 40
0.6562500000000071
 40
0.6562500000000071
 40
0.6875000000000068
 40
0.6875000000000068
 40
0.7187500000000064
 40
0.7187500000000064
 40
0.7500000000000061
 40
0.7500000000000061
 40
0.7812500000000059
 40
0.7812500000000059
 40
0.8125000000000056
 40
0.8125000000000056
 40
0.8750000000000039
 40
0.8750000000000039
 40
0.9062500000000029
 40
0.9062500000000029
 40
0.9375000000000019
 40
0.9375000000000019
 40
0.968750000000001
 40
0.968750000000001
 40
1.0
 40
1.0
 40
1.0
 40
1.0
 10
6.934800550104951
 20
-210.0042708813494
 30
0.0
 10
7.113545136238875
 20
-209.8283403748639
 30
0.0
 10
7.269387169937358
 20
-209.6405735166505
 30
0.0
 10
7.53875910550404
 20
-209.2431265967516
 30
0.0
 10
7.653074578667969
 20
-209.0309062467731
 30
0.0
 10
7.831745292026587
 20
-208.5997461251023
 30
0.0
 10
7.897066082826318
 20
-208.3804486038666
 30
0.0
 10
7.98157284557181
 20
-207.9346410920711
 30
0.0
 10
8.000002691626573
 20
-207.7092856810146
 30
0.0
 10
7.98600796610851
 20
-207.0483540595518
 30
0.0
 10
7.883470477970805
 20
-206.614016594058
 30
0.0
 10
7.60864036959039
 20
-206.023806523705
 30
0.0
 10
7.495701227950789
 20
-205.8341825804729
 30
0.0
 10
7.232127273863881
 20
-205.4795178041138
 30
0.0
 10
7.083207413484393
 20
-205.316138170797
 30
0.0
 10
6.751483554994577
 20
-205.0170048204216
 30
0.0
 10
6.566582392416559
 20
-204.8800731577299
 30
0.0
 10
6.170604172705819
 20
-204.6429248660896
 30
0.0
 10
5.96087944328726
 20
-204.5428981791263
 30
0.0
 10
5.517558430571577
 20
-204.3806709398875
 30
0.0
 10
5.280948373901008
 20
-204.3181212973535
 30
0.0
 10
4.799308736628944
 20
-204.2385290263013
 30
0.0
 10
4.554235497204604
 20
-204.2207489106626
 30
0.0
 10
4.055292063857474
 20
-204.2309302712203
 30
0.0
 10
3.799402225299932
 20
-204.259812172731
 30
0.0
 10
3.303511609240518
 20
-204.3634842674944
 30
0.0
 10
3.060631076451808
 20
-204.4379592692731
 30
0.0
 10
2.585550945565757
 20
-204.634626127788
 30
0.0
 10
2.358784346812436
 20
-204.7549961831324
 30
0.0
 10
1.93706530961575
 20
-205.0328721020916
 30
0.0
 10
1.738163878351001
 20
-205.1934377575496
 30
0.0
 10
1.383046337035537
 20
-205.5426513248116
 30
0.0
 10
1.22640017542891
 20
-205.7306282465578
 30
0.0
 10
0.9538968733928226
 20
-206.1326224004107
 30
0.0
 10
0.839852777787033
 20
-206.3449231768434
 30
0.0
 10
0.6609606320883066
 20
-206.7769275360442
 30
0.0
 10
0.5943968922261113
 20
-207.0006679668525
 30
0.0
 10
0.5099415127847746
 20
-207.4496462846848
 30
0.0
 10
0.4919220412862823
 20
-207.6728990896567
 30
0.0
 10
0.5017422804378746
 20
-208.1169984279612
 30
0.0
 10
0.5302766801917671
 20
-208.3390623957055
 30
0.0
 10
0.6305649575829072
 20
-208.7647086645716
 30
0.0
 10
0.7021145643167714
 20
-208.970250365635
 30
0.0
 10
0.8877758000250449
 20
-209.3668210182719
 30
0.0
 10
1.00184772045075
 20
-209.5566289633491
 30
0.0
 10
1.264181540143457
 20
-209.90769152758
 30
0.0
 10
1.41322944943751
 20
-210.0707991374726
 30
0.0
 10
1.748500378443509
 20
-210.3712080787513
 30
0.0
 10
1.932600351485467
 20
-210.5061462098131
 30
0.0
 10
2.325057262923322
 20
-210.7395234376336
 30
0.0
 10
2.534580884962103
 20
-210.8390731828447
 30
0.0
 10
3.206285210653803
 20
-211.0822639357079
 30
0.0
 10
3.687681971534472
 20
-211.1627200781601
 30
0.0
 10
4.44293189797608
 20
-211.1452518768642
 30
0.0
 10
4.692512589499692
 20
-211.1163346217232
 30
0.0
 10
5.187357759341444
 20
-211.012337444512
 30
0.0
 10
5.435803317318964
 20
-210.935733790993
 30
0.0
 10
5.907968715013683
 20
-210.7395788197325
 30
0.0
 10
6.132285717150641
 20
-210.6207022166577
 30
0.0
 10
6.557097730115303
 20
-210.340838803501
 30
0.0
 10
6.756055963971046
 20
-210.180201387835
 30
0.0
 10
6.93480055010495
 20
-210.0042708813494
 30
0.0
  0
SPLINE
  5
1EE
330
1C1
100
AcDbEntity
 67
     1
  8
0
  6
Continuous
 62
     7
370
    15
100
AcDbSpline
210
0.0
220
0.0
230
1.0
 70
    11
 71
     3
 72
    70
 73
    66
 74
     0
 42
0.000000001
 43
0.00000001
 40
0.0
 40
0.0
 40
0.0
 40
0.0
 40
0.03125
 40
0.03125
 40
0.0624999999999999
 40
0.0624999999999999
 40
0.0937499999999998
 40
0.0937499999999998
 40
0.1249999999999998
 40
0.1249999999999998
 40
0.1562499999999997
 40
0.1562499999999997
 40
0.1874999999999997
 40
0.1874999999999997
 40
0.2187499999999996
 40
0.2187499999999996
 40
0.2499999999999995
 40
0.2499999999999995
 40
0.2812499999999994
 40
0.2812499999999994
 40
0.3124999999999994
 40
0.3124999999999994
 40
0.3437499999999996
 40
0.3437499999999996
 40
0.3749999999999997
 40
0.3749999999999997
 40
0.4062499999999998
 40
0.4062499999999998
 40
0.4374999999999998
 40
0.4374999999999998
 40
0.4687499999999999
 40
0.4687499999999999
 40
0.4999999999999999
 40
0.4999999999999999
 40
0.53125
 40
0.53125
 40
0.5625
 40
0.5625
 40
0.5937500000000001
 40
0.5937500000000001
 40
0.6250000000000002
 40
0.6250000000000002
 40
0.6562500000000002
 40
0.6562500000000002
 40
0.6875000000000003
 40
0.6875000000000003
 40
0.7187500000000004
 40
0.7187500000000004
 40
0.7500000000000004
 40
0.7500000000000004
 40
0.7812500000000006
 40
0.7812500000000006
 40
0.8125000000000007
 40
0.8125000000000007
 40
0.8437500000000008
 40
0.8437500000000008
 40
0.8750000000000007
 40
0.8750000000000007
 40
0.9062500000000006
 40
0.9062500000000006
 40
0.9375000000000004
 40
0.9375000000000004
 40
0.9687500000000002
 40
0.9687500000000002
 40
1.0
 40
1.0
 40
1.0
 40
1.0
 10
-4.336110569742051
 20
-213.0650970395941
 30
0.0
 10
-4.162469557643526
 20
-212.9047991736112
 30
0.0
 10
-4.010311791335907
 20
-212.7329523246713
 30
0.0
 10
-3.745298039808214
 20
-212.3680543841574
 30
0.0
 10
-3.631787266511785
 20
-212.1733950027124
 30
0.0
 10
-3.448335747387579
 20
-211.7697408700097
 30
0.0
 10
-3.37910583418717
 20
-211.5632566777683
 30
0.0
 10
-3.28369506284985
 20
-211.1413383882057
 30
0.0
 10
-3.257639191011647
 20
-210.9237826311662
 30
0.0
 10
-3.250999143742615
 20
-210.4923301143461
 30
0.0
 10
-3.269828597850391
 20
-210.2782017868468
 30
0.0
 10
-3.351760152461125
 20
-209.8531544397772
 30
0.0
 10
-3.415907257426024
 20
-209.6403713865239
 30
0.0
 10
-3.585943539357323
 20
-209.2335679912513
 30
0.0
 10
-3.691665461707173
 20
-209.0381907531157
 30
0.0
 10
-3.945886788514912
 20
-208.6640771990577
 30
0.0
 10
-4.096112566478795
 20
-208.4841750124597
 30
0.0
 10
-4.429185876656423
 20
-208.1577864078569
 30
0.0
 10
-4.612917416729184
 20
-208.0093374860273
 30
0.0
 10
-5.016729578125299
 20
-207.7436893398847
 30
0.0
 10
-5.23724677656748
 20
-207.6271333866789
 30
0.0
 10
-5.694564381626425
 20
-207.438923773507
 30
0.0
 10
-5.93384151941706
 20
-207.3653954627781
 30
0.0
 10
-6.435229315524448
 20
-207.2626371685723
 30
0.0
 10
-6.688774584357611
 20
-207.2352944406456
 30
0.0
 10
-7.197683990595536
 20
-207.2277511147216
 30
0.0
 10
-7.456818536995451
 20
-207.2482212279678
 30
0.0
 10
-7.957417372942975
 20
-207.3356882184782
 30
0.0
 10
-8.19988678935788
 20
-207.4020062660104
 30
0.0
 10
-8.669321208031766
 20
-207.5793178193043
 30
0.0
 10
-8.892356201435799
 20
-207.6892722162023
 30
0.0
 10
-9.30480509699975
 20
-207.9434102726687
 30
0.0
 10
-9.497929078808532
 20
-208.0901064630321
 30
0.0
 10
-9.843994024588513
 20
-208.4103709730062
 30
0.0
 10
-9.996954966018622
 20
-208.5831333650232
 30
0.0
 10
-10.26453265426644
 20
-208.9527129844917
 30
0.0
 10
-10.37869021289241
 20
-209.1499203900251
 30
0.0
 10
-10.56082133170545
 20
-209.552869300159
 30
0.0
 10
-10.63026043136417
 20
-209.7604236406491
 30
0.0
 10
-10.7258005020037
 20
-210.1876722715975
 30
0.0
 10
-10.75082229885676
 20
-210.4035824073729
 30
0.0
 10
-10.75652419930526
 20
-210.8332126607614
 30
0.0
 10
-10.73737898839286
 20
-211.0483532730804
 30
0.0
 10
-10.65340643723247
 20
-211.477099245807
 30
0.0
 10
-10.58975382751242
 20
-211.6850858297521
 30
0.0
 10
-10.42004464848109
 20
-212.0885947178982
 30
0.0
 10
-10.3132678330612
 20
-212.285189491917
 30
0.0
 10
-10.05665336579768
 20
-212.6601867552826
 30
0.0
 10
-9.909702711053773
 20
-212.8348218678074
 30
0.0
 10
-9.578290462035474
 20
-213.1582882812214
 30
0.0
 10
-9.391598098151064
 20
-213.3085484077382
 30
0.0
 10
-8.986985325758884
 20
-213.5730757509058
 30
0.0
 10
-8.771667324220646
 20
-213.6862949168499
 30
0.0
 10
-8.314425045404588
 20
-213.8738712891284
 30
0.0
 10
-8.069335539860635
 20
-213.9485458325948
 30
0.0
 10
-7.573531110191739
 20
-214.0494724575864
 30
0.0
 10
-7.321256229755563
 20
-214.0769766638435
 30
0.0
 10
-6.807663870626277
 20
-214.0845298424334
 30
0.0
 10
-6.550434517357644
 20
-214.0640011447394
 30
0.0
 10
-6.051535983556877
 20
-213.977235164154
 30
0.0
 10
-5.80453381159054
 20
-213.9098722252898
 30
0.0
 10
-5.337155286347307
 20
-213.7337042984937
 30
0.0
 10
-5.11698457180078
 20
-213.6257363573169
 30
0.0
 10
-4.702655879198139
 20
-213.3714625633278
 30
0.0
 10
-4.509751581840574
 20
-213.2253949055769
 30
0.0
 10
-4.336110569742051
 20
-213.0650970395941
 30
0.0
  0
SPLINE
  5
1EF
330
1C1
100
AcDbEntity
 67
     1
  8
0
  6
Continuous
 62
     7
370
    15
100
AcDbSpline
210
0.0
220
0.0
230
1.0
 70
    11
 71
     3
 72
    68
 73
    64
 74
     0
 42
0.000000001
 43
0.00000001
 40
0.0
 40
0.0
 40
0.0
 40
0.0
 40
0.03125
 40
0.03125
 40
0.0624999999999999
 40
0.0624999999999999
 40
0.0937499999999999
 40
0.0937499999999999
 40
0.1249999999999998
 40
0.1249999999999998
 40
0.1562499999999998
 40
0.1562499999999998
 40
0.1874999999999997
 40
0.1874999999999997
 40
0.2187499999999995
 40
0.2187499999999995
 40
0.2499999999999993
 40
0.2499999999999993
 40
0.2812499999999991
 40
0.2812499999999991
 40
0.3124999999999988
 40
0.3124999999999988
 40
0.3437499999999986
 40
0.3437499999999986
 40
0.3749999999999984
 40
0.3749999999999984
 40
0.4062499999999982
 40
0.4062499999999982
 40
0.437499999999998
 40
0.437499999999998
 40
0.4687499999999978
 40
0.4687499999999978
 40
0.4999999999999976
 40
0.4999999999999976
 40
0.5312499999999978
 40
0.5312499999999978
 40
0.5624999999999979
 40
0.5624999999999979
 40
0.5937499999999981
 40
0.5937499999999981
 40
0.6249999999999982
 40
0.6249999999999982
 40
0.6562499999999984
 40
0.6562499999999984
 40
0.6874999999999986
 40
0.6874999999999986
 40
0.7187499999999988
 40
0.7187499999999988
 40
0.7499999999999989
 40
0.7499999999999989
 40
0.7812499999999991
 40
0.7812499999999991
 40
0.8124999999999993
 40
0.8124999999999993
 40
0.8437499999999994
 40
0.8437499999999994
 40
0.8749999999999997
 40
0.8749999999999997
 40
0.9062499999999998
 40
0.9062499999999998
 40
0.9375
 40
0.9375
 40
1.0
 40
1.0
 40
1.0
 40
1.0
 10
-15.37813296071671
 20
-210.0151349776044
 30
0.0
 10
-15.22504283307485
 20
-209.8518489612075
 30
0.0
 10
-15.09182515320702
 20
-209.6772938764654
 30
0.0
 10
-14.86332180283981
 20
-209.3066656208078
 30
0.0
 10
-14.76772167417063
 20
-209.1097136251462
 30
0.0
 10
-14.61816871433002
 20
-208.6967177160008
 30
0.0
 10
-14.56563514440125
 20
-208.4851551710118
 30
0.0
 10
-14.50452932698133
 20
-208.0520633016772
 30
0.0
 10
-14.49608485346606
 20
-207.8287234462648
 30
0.0
 10
-14.526937930075
 20
-207.3794854470281
 30
0.0
 10
-14.56560705375627
 20
-207.1570400440488
 30
0.0
 10
-14.68997996134241
 20
-206.7166132787606
 30
0.0
 10
-14.77713646568733
 20
-206.4960263272028
 30
0.0
 10
-14.99684109584326
 20
-206.0742210303433
 30
0.0
 10
-15.12822867691526
 20
-205.8737111083638
 30
0.0
 10
-15.43523549381885
 20
-205.4940864883985
 30
0.0
 10
-15.6129458613211
 20
-205.3138771148323
 30
0.0
 10
-15.99751504535065
 20
-204.9939391317627
 30
0.0
 10
-16.20580044099274
 20
-204.8518002759062
 30
0.0
 10
-16.65573505813149
 20
-204.6047082631914
 30
0.0
 10
-16.89136275229531
 20
-204.5033584461621
 30
0.0
 10
-17.37557813968333
 20
-204.3463491459384
 30
0.0
 10
-17.62836314493207
 20
-204.2899008743281
 30
0.0
 10
-18.13012726121203
 20
-204.2258406955883
 30
0.0
 10
-18.37992096748848
 20
-204.2173329400031
 30
0.0
 10
-18.87736147637599
 20
-204.246132920385
 30
0.0
 10
-19.12138223663628
 20
-204.2836184499525
 30
0.0
 10
-19.58842275824106
 20
-204.3998015318649
 30
0.0
 10
-19.81534004664037
 20
-204.4795633626672
 30
0.0
 10
-20.24226036987305
 20
-204.6764459160029
 30
0.0
 10
-20.44099983183801
 20
-204.7924660374137
 30
0.0
 10
-20.81039445007463
 20
-205.0579647804427
 30
0.0
 10
-20.98190241615725
 20
-205.2088324657535
 30
0.0
 10
-21.28490613222821
 20
-205.5333679169089
 30
0.0
 10
-21.4180138383444
 20
-205.7078464909452
 30
0.0
 10
-21.64747362832505
 20
-206.081186495847
 30
0.0
 10
-21.7433729502798
 20
-206.2804150965688
 30
0.0
 10
-21.89043330378198
 20
-206.6884587455744
 30
0.0
 10
-21.94286598011272
 20
-206.8990640630276
 30
0.0
 10
-22.00380628118835
 20
-207.3340218891994
 30
0.0
 10
-22.01161193210311
 20
-207.5574475149682
 30
0.0
 10
-21.98080728731446
 20
-207.9999408389785
 30
0.0
 10
-21.94263020522142
 20
-208.221236374085
 30
0.0
 10
-21.81722158043395
 20
-208.6640073727661
 30
0.0
 10
-21.7303703244337
 20
-208.8822946049077
 30
0.0
 10
-21.51303961894486
 20
-209.2991197812881
 30
0.0
 10
-21.38174190502323
 20
-209.5001443350999
 30
0.0
 10
-21.07120469574538
 20
-209.8835132434009
 30
0.0
 10
-20.89752239721469
 20
-210.0591163615073
 30
0.0
 10
-20.51381462928971
 20
-210.37861450966
 30
0.0
 10
-20.30065897809963
 20
-210.5239621062719
 30
0.0
 10
-19.85406061390335
 20
-210.7692925212462
 30
0.0
 10
-19.62040619455489
 20
-210.8703969958661
 30
0.0
 10
-19.13233157998104
 20
-211.0293656010379
 30
0.0
 10
-18.88149037999755
 20
-211.085563366451
 30
0.0
 10
-18.38174480430841
 20
-211.1504949749581
 30
0.0
 10
-18.12780418559905
 20
-211.1596977506219
 30
0.0
 10
-17.63291947211082
 20
-211.1321335136714
 30
0.0
 10
-17.39220768872684
 20
-211.0960286707849
 30
0.0
 10
-16.92361326714693
 20
-210.9810932630645
 30
0.0
 10
-16.69692960710546
 20
-210.9020147741108
 30
0.0
 10
-16.06156886846339
 20
-210.611688389089
 30
0.0
 10
-15.68431321600041
 20
-210.3417070103981
 30
0.0
 10
-15.3781329607167
 20
-210.0151349776044
 30
0.0
  0
SPLINE
  5
1F0
330
1C1
100
AcDbEntity
 67
     1
  8
0
  6
Continuous
 62
     7
370
    15
100
AcDbSpline
210
0.0
220
0.0
230
1.0
 70
    11
 71
     3
 72
    70
 73
    66
 74
     0
 42
0.000000001
 43
0.00000001
 40
0.0
 40
0.0
 40
0.0
 40
0.0
 40
0.0312499999999999
 40
0.0312499999999999
 40
0.0624999999999998
 40
0.0624999999999998
 40
0.0937499999999997
 40
0.0937499999999997
 40
0.1249999999999996
 40
0.1249999999999996
 40
0.1562499999999994
 40
0.1562499999999994
 40
0.1874999999999993
 40
0.1874999999999993
 40
0.2187499999999992
 40
0.2187499999999992
 40
0.2499999999999991
 40
0.2499999999999991
 40
0.281249999999999
 40
0.281249999999999
 40
0.3124999999999989
 40
0.3124999999999989
 40
0.3437499999999988
 40
0.3437499999999988
 40
0.3749999999999987
 40
0.3749999999999987
 40
0.4062499999999986
 40
0.4062499999999986
 40
0.4374999999999984
 40
0.4374999999999984
 40
0.4687499999999983
 40
0.4687499999999983
 40
0.4999999999999982
 40
0.4999999999999982
 40
0.5312499999999983
 40
0.5312499999999983
 40
0.5624999999999984
 40
0.5624999999999984
 40
0.5937499999999986
 40
0.5937499999999986
 40
0.6249999999999987
 40
0.6249999999999987
 40
0.6562499999999988
 40
0.6562499999999988
 40
0.6874999999999989
 40
0.6874999999999989
 40
0.718749999999999
 40
0.718749999999999
 40
0.7499999999999991
 40
0.7499999999999991
 40
0.7812499999999992
 40
0.7812499999999992
 40
0.8124999999999993
 40
0.8124999999999993
 40
0.8437499999999994
 40
0.8437499999999994
 40
0.8749999999999996
 40
0.8749999999999996
 40
0.9062499999999997
 40
0.9062499999999997
 40
0.9374999999999998
 40
0.9374999999999998
 40
0.9687499999999999
 40
0.9687499999999999
 40
1.0
 40
1.0
 40
1.0
 40
1.0
 10
-23.79490784978907
 20
-202.2224506629788
 30
0.0
 10
-23.62816770317427
 20
-202.0691303724693
 30
0.0
 10
-23.47960562480837
 20
-201.9013799094787
 30
0.0
 10
-23.21847633355956
 20
-201.5373642615502
 30
0.0
 10
-23.10510586350204
 20
-201.3392207061697
 30
0.0
 10
-22.92188998814233
 20
-200.9205061450208
 30
0.0
 10
-22.85276018140793
 20
-200.7027135906045
 30
0.0
 10
-22.76029942253328
 20
-200.2500097710498
 30
0.0
 10
-22.73718265237645
 20
-200.0120035797932
 30
0.0
 10
-22.74224070160618
 20
-199.5360767544346
 30
0.0
 10
-22.76957357591459
 20
-199.2978507446801
 30
0.0
 10
-22.87559954920287
 20
-198.8208945838746
 30
0.0
 10
-22.9553102933453
 20
-198.581771517853
 30
0.0
 10
-23.1601668643835
 20
-198.1276263709001
 30
0.0
 10
-23.28626000453037
 20
-197.9087042616967
 30
0.0
 10
-23.58517531947588
 20
-197.4922413211056
 30
0.0
 10
-23.75317023680422
 20
-197.3011421670124
 30
0.0
 10
-24.12440414191916
 20
-196.9515140184017
 30
0.0
 10
-24.32975993815295
 20
-196.7921554974073
 30
0.0
 10
-24.75791991751793
 20
-196.5194437306907
 30
0.0
 10
-24.98228613451818
 20
-196.4041253733934
 30
0.0
 10
-25.4512870400489
 20
-196.2149860668339
 30
0.0
 10
-25.68966981678045
 20
-196.1437986023342
 30
0.0
 10
-26.17006189266782
 20
-196.0457314017157
 30
0.0
 10
-26.41506127167015
 20
-196.0187311948952
 30
0.0
 10
-26.89576203872906
 20
-196.0095866513623
 30
0.0
 10
-27.13150034453867
 20
-196.0268707303562
 30
0.0
 10
-27.59403420629754
 20
-196.103631836247
 30
0.0
 10
-27.82161500716257
 20
-196.1638480409727
 30
0.0
 10
-28.25120987896755
 20
-196.3219947985189
 30
0.0
 10
-28.4554193769682
 20
-196.4200939713988
 30
0.0
 10
-28.84242001413398
 20
-196.6547714334365
 30
0.0
 10
-29.02426477949231
 20
-196.7913872212935
 30
0.0
 10
-29.35210441921418
 20
-197.0933398613563
 30
0.0
 10
-29.50005024866762
 20
-197.2597379637999
 30
0.0
 10
-29.76232399680502
 20
-197.6250519670282
 30
0.0
 10
-29.87500061808985
 20
-197.8225306385729
 30
0.0
 10
-30.0558754127355
 20
-198.2348617494279
 30
0.0
 10
-30.12538880532093
 20
-198.4513887779332
 30
0.0
 10
-30.21891618032733
 20
-198.9070569273176
 30
0.0
 10
-30.24154052646272
 20
-199.1412232374
 30
0.0
 10
-30.23721607254901
 20
-199.6125925373477
 30
0.0
 10
-30.21019225366991
 20
-199.8531882775875
 30
0.0
 10
-30.10381646603253
 20
-200.3327394423053
 30
0.0
 10
-30.02606473796842
 20
-200.5663097185916
 30
0.0
 10
-29.82173067478176
 20
-201.0211346285892
 30
0.0
 10
-29.69318546457329
 20
-201.2443814112098
 30
0.0
 10
-29.39778409397028
 20
-201.6569713339525
 30
0.0
 10
-29.23036071674071
 20
-201.8487577902702
 30
0.0
 10
-28.85558968380772
 20
-202.2029540797785
 30
0.0
 10
-28.65380102085943
 20
-202.3599297587178
 30
0.0
 10
-28.2268096416675
 20
-202.6336308014635
 30
0.0
 10
-27.99859508793842
 20
-202.7515587887896
 30
0.0
 10
-27.53482412250558
 20
-202.9401979196549
 30
0.0
 10
-27.29818711189587
 20
-203.0121276551354
 30
0.0
 10
-26.81565906821046
 20
-203.1125699555994
 30
0.0
 10
-26.57272109268064
 20
-203.1400993139002
 30
0.0
 10
-26.09527923900165
 20
-203.1512283183897
 30
0.0
 10
-25.85767402962471
 20
-203.1349979213365
 30
0.0
 10
-25.39284727065709
 20
-203.0595320953034
 30
0.0
 10
-25.16939719542738
 20
-203.0011664646546
 30
0.0
 10
-24.73966501437866
 20
-202.8448665682442
 30
0.0
 10
-24.53188259735845
 20
-202.7459422743887
 30
0.0
 10
-24.1427352906521
 20
-202.5110859785004
 30
0.0
 10
-23.96164799640387
 20
-202.3757709534883
 30
0.0
 10
-23.79490784978907
 20
-202.2224506629788
 30
0.0
  0
SPLINE
  5
1F1
330
1C1
100
AcDbEntity
 67
     1
  8
0
  6
Continuous
 62
     7
370
    15
100
AcDbSpline
210
0.0
220
0.0
230
1.0
 70
    11
 71
     3
 72
    70
 73
    66
 74
     0
 42
0.000000001
 43
0.00000001
 40
0.0
 40
0.0
 40
0.0
 40
0.0
 40
0.0312500000000004
 40
0.0312500000000004
 40
0.0625000000000008
 40
0.0625000000000008
 40
0.0937500000000011
 40
0.0937500000000011
 40
0.1250000000000015
 40
0.1250000000000015
 40
0.1562500000000019
 40
0.1562500000000019
 40
0.1875000000000023
 40
0.1875000000000023
 40
0.2187500000000027
 40
0.2187500000000027
 40
0.2500000000000031
 40
0.2500000000000031
 40
0.2812500000000034
 40
0.2812500000000034
 40
0.3125000000000038
 40
0.3125000000000038
 40
0.3437500000000042
 40
0.3437500000000042
 40
0.3750000000000046
 40
0.3750000000000046
 40
0.4062500000000049
 40
0.4062500000000049
 40
0.4375000000000053
 40
0.4375000000000053
 40
0.468750000000005
 40
0.468750000000005
 40
0.5000000000000047
 40
0.5000000000000047
 40
0.5312500000000043
 40
0.5312500000000043
 40
0.5625000000000041
 40
0.5625000000000041
 40
0.5937500000000038
 40
0.5937500000000038
 40
0.6250000000000036
 40
0.6250000000000036
 40
0.6562500000000032
 40
0.6562500000000032
 40
0.687500000000003
 40
0.687500000000003
 40
0.7187500000000027
 40
0.7187500000000027
 40
0.7500000000000023
 40
0.7500000000000023
 40
0.7812500000000021
 40
0.7812500000000021
 40
0.8125000000000018
 40
0.8125000000000018
 40
0.8437500000000016
 40
0.8437500000000016
 40
0.8750000000000012
 40
0.8750000000000012
 40
0.906250000000001
 40
0.906250000000001
 40
0.9375000000000007
 40
0.9375000000000007
 40
0.9687500000000004
 40
0.9687500000000004
 40
1.0
 40
1.0
 40
1.0
 40
1.0
 10
-26.65728725556881
 20
-191.1069697047156
 30
0.0
 10
-26.49492369402019
 20
-190.9318654299429
 30
0.0
 10
-26.35272575083955
 20
-190.7412136713261
 30
0.0
 10
-26.10888074586413
 20
-190.3287092187699
 30
0.0
 10
-26.00651160670795
 20
-190.1038876097546
 30
0.0
 10
-25.85319029150737
 20
-189.6391030902905
 30
0.0
 10
-25.8011093671023
 20
-189.3986014689563
 30
0.0
 10
-25.74770415163488
 20
-188.9008705877935
 30
0.0
 10
-25.74733117865492
 20
-188.6461333541583
 30
0.0
 10
-25.79815528456748
 20
-188.1445548094726
 30
0.0
 10
-25.8499110175597
 20
-187.8921552679938
 30
0.0
 10
-26.0023284412745
 20
-187.4034285909448
 30
0.0
 10
-26.10170430609361
 20
-187.1690340176059
 30
0.0
 10
-26.34498722846845
 20
-186.7194064250099
 30
0.0
 10
-26.48922798904914
 20
-186.5049783728197
 30
0.0
 10
-26.80878421292006
 20
-186.1131090439507
 30
0.0
 10
-26.9864629112729
 20
-185.9321701156107
 30
0.0
 10
-27.37083315480328
 20
-185.6060011195943
 30
0.0
 10
-27.5738258430982
 20
-185.4635520267258
 30
0.0
 10
-28.00002640468576
 20
-185.2173223034248
 30
0.0
 10
-28.22539919733792
 20
-185.1130125106613
 30
0.0
 10
-28.68171589235248
 20
-184.9495492157209
 30
0.0
 10
-28.91349167064173
 20
-184.8894540035421
 30
0.0
 10
-29.38414073047137
 20
-184.8118328744029
 30
0.0
 10
-29.6238366338171
 20
-184.7947747967537
 30
0.0
 10
-30.09254380900401
 20
-184.8050051886265
 30
0.0
 10
-30.32378705246404
 20
-184.8317385064387
 30
0.0
 10
-30.77990016956391
 20
-184.9296258528078
 30
0.0
 10
-31.00423403384979
 20
-185.0012668468922
 30
0.0
 10
-31.4280198763105
 20
-185.1847796277852
 30
0.0
 10
-31.6298862312903
 20
-185.2970260025408
 30
0.0
 10
-32.01230811883944
 20
-185.5651961567651
 30
0.0
 10
-32.19098224942341
 20
-185.7205379736059
 30
0.0
 10
-32.50964617398277
 20
-186.0631421370818
 30
0.0
 10
-32.65174422466335
 20
-186.2517353418055
 30
0.0
 10
-32.89828978173976
 20
-186.6667865200091
 30
0.0
 10
-32.99900588503509
 20
-186.8875139489181
 30
0.0
 10
-33.1524412485823
 20
-187.3487108837445
 30
0.0
 10
-33.20603030105111
 20
-187.5933075460139
 30
0.0
 10
-33.26002891920987
 20
-188.0906861737466
 30
0.0
 10
-33.26092775918455
 20
-188.3411241721028
 30
0.0
 10
-33.21085572016659
 20
-188.8454756040601
 30
0.0
 10
-33.15904651215897
 20
-189.0992534217064
 30
0.0
 10
-33.00848862769973
 20
-189.585550108378
 30
0.0
 10
-32.90857595892342
 20
-189.8231534178144
 30
0.0
 10
-32.66522449954434
 20
-190.275091828044
 30
0.0
 10
-32.52408171828732
 20
-190.4860779997184
 30
0.0
 10
-32.20518353852316
 20
-190.8798919998503
 30
0.0
 10
-32.02629782709665
 20
-191.0630144334878
 30
0.0
 10
-31.64685917915338
 20
-191.3874656446321
 30
0.0
 10
-31.44481191844172
 20
-191.5309412596064
 30
0.0
 10
-31.01631304464272
 20
-191.7808313277663
 30
0.0
 10
-30.79441738622046
 20
-191.8844141108345
 30
0.0
 10
-30.34082308272606
 20
-192.0492085701181
 30
0.0
 10
-30.10681836627197
 20
-192.1110848327034
 30
0.0
 10
-29.63411093262406
 20
-192.1906616917413
 30
0.0
 10
-29.39870838510073
 20
-192.2081196734134
 30
0.0
 10
-28.92975931224606
 20
-192.1995213810116
 30
0.0
 10
-28.69401071463672
 20
-192.1729281271819
 30
0.0
 10
-28.23597316447272
 20
-192.075327468325
 30
0.0
 10
-28.0149222043097
 20
-192.0051026114539
 30
0.0
 10
-27.58892653038291
 20
-191.8214605212714
 30
0.0
 10
-27.38211743860396
 20
-191.7066184013777
 30
0.0
 10
-26.99759428182422
 20
-191.4366514382957
 30
0.0
 10
-26.81965081711742
 20
-191.2820739794883
 30
0.0
 10
-26.65728725556881
 20
-191.1069697047156
 30
0.0
  0
SPLINE
  5
1F2
330
1C1
100
AcDbEntity
 67
     1
  8
0
  6
Continuous
 62
     7
370
    15
100
AcDbSpline
210
0.0
220
0.0
230
1.0
 70
    11
 71
     3
 72
    68
 73
    64
 74
     0
 42
0.000000001
 43
0.00000001
 40
0.0
 40
0.0
 40
0.0
 40
0.0
 40
0.03125
 40
0.03125
 40
0.0625
 40
0.0625
 40
0.09375
 40
0.09375
 40
0.125
 40
0.125
 40
0.15625
 40
0.15625
 40
0.1875
 40
0.1875
 40
0.21875
 40
0.21875
 40
0.25
 40
0.25
 40
0.28125
 40
0.28125
 40
0.3125
 40
0.3125
 40
0.34375
 40
0.34375
 40
0.375
 40
0.375
 40
0.40625
 40
0.40625
 40
0.4375
 40
0.4375
 40
0.46875
 40
0.46875
 40
0.5
 40
0.5
 40
0.53125
 40
0.53125
 40
0.5625
 40
0.5625
 40
0.59375
 40
0.59375
 40
0.625
 40
0.625
 40
0.65625
 40
0.65625
 40
0.6875
 40
0.6875
 40
0.71875
 40
0.71875
 40
0.75
 40
0.75
 40
0.78125
 40
0.78125
 40
0.8125
 40
0.8125
 40
0.84375
 40
0.84375
 40
0.875
 40
0.875
 40
0.90625
 40
0.90625
 40
0.9375
 40
0.9375
 40
1.0
 40
1.0
 40
1.0
 40
1.0
 10
-23.78776062043345
 20
-180.2402654140028
 30
0.0
 10
-23.60961715533266
 20
-180.0622964152253
 30
0.0
 10
-23.45291118330535
 20
-179.8673402275622
 30
0.0
 10
-23.18129176841746
 20
-179.4443213243526
 30
0.0
 10
-23.06575045750581
 20
-179.2134430558633
 30
0.0
 10
-22.88762719353869
 20
-178.7380816043469
 30
0.0
 10
-22.82345876237827
 20
-178.4921484545627
 30
0.0
 10
-22.74502871439326
 20
-177.9837306200369
 30
0.0
 10
-22.73198836579682
 20
-177.7275169066845
 30
0.0
 10
-22.75521894162269
 20
-177.2189198736958
 30
0.0
 10
-22.79216276308723
 20
-176.9626649818822
 30
0.0
 10
-22.91176854906802
 20
-176.4685964693888
 30
0.0
 10
-22.99389267485336
 20
-176.2299742186685
 30
0.0
 10
-23.20113354595519
 20
-175.7689524380902
 30
0.0
 10
-23.32614272038063
 20
-175.5480310984805
 30
0.0
 10
-23.60856889933306
 20
-175.1385657035287
 30
0.0
 10
-23.7669782368003
 20
-174.9477460739084
 30
0.0
 10
-24.11820245352076
 20
-174.594549466155
 30
0.0
 10
-24.30609962046655
 20
-174.4370909380304
 30
0.0
 10
-24.70520790785982
 20
-174.1585182115677
 30
0.0
 10
-24.91794374969818
 20
-174.0367383507108
 30
0.0
 10
-25.36111496164633
 20
-173.8346613422169
 30
0.0
 10
-25.58832326788771
 20
-173.7554790055368
 30
0.0
 10
-26.05387226390257
 20
-173.6403096044194
 30
0.0
 10
-26.29456241361152
 20
-173.6042446133957
 30
0.0
 10
-26.77650922254794
 20
-173.5800316219346
 30
0.0
 10
-27.01564298183599
 20
-173.5914809982133
 30
0.0
 10
-27.4902127505296
 20
-173.6623273258195
 30
0.0
 10
-27.72848363569041
 20
-173.7229099615272
 30
0.0
 10
-28.18430586948017
 20
-173.8919323543329
 30
0.0
 10
-28.40178956101298
 20
-173.999508720072
 30
0.0
 10
-28.8151929974039
 20
-174.2624682798223
 30
0.0
 10
-29.01236332704162
 20
-174.4198656768123
 30
0.0
 10
-29.36404459598189
 20
-174.7698430853339
 30
0.0
 10
-29.52118104492856
 20
-174.9635576371578
 30
0.0
 10
-29.79623978062945
 20
-175.3902624718318
 30
0.0
 10
-29.91041140886516
 20
-175.6181225956009
 30
0.0
 10
-30.08916000362636
 20
-176.0925968937209
 30
0.0
 10
-30.15489468968943
 20
-176.3437728709883
 30
0.0
 10
-30.23333141721311
 20
-176.8489685323415
 30
0.0
 10
-30.24697880008327
 20
-177.1034366201085
 30
0.0
 10
-30.22452197582836
 20
-177.6160125657318
 30
0.0
 10
-30.18815902031069
 20
-177.8704101700206
 30
0.0
 10
-30.07037881553091
 20
-178.3628887085491
 30
0.0
 10
-29.98783144984716
 20
-178.6051769741703
 30
0.0
 10
-29.78203906523243
 20
-179.0663692511625
 30
0.0
 10
-29.65983821284136
 20
-179.2841873026893
 30
0.0
 10
-29.37858292508735
 20
-179.6954588747252
 30
0.0
 10
-29.21818366184098
 20
-179.8897550913437
 30
0.0
 10
-28.87209831078323
 20
-180.2402764128231
 30
0.0
 10
-28.68542552831109
 20
-180.3983812810196
 30
0.0
 10
-28.28475361668865
 20
-180.6802086674344
 30
0.0
 10
-28.0708006972013
 20
-180.8032361206296
 30
0.0
 10
-27.63147578990772
 20
-181.0049872430335
 30
0.0
 10
-27.40419068407411
 20
-181.0851971979356
 30
0.0
 10
-26.93372377290818
 20
-181.2024542891319
 30
0.0
 10
-26.69225331713352
 20
-181.2385455535286
 30
0.0
 10
-26.2127490651485
 20
-181.2629624716365
 30
0.0
 10
-25.97246451270577
 20
-181.2519456557198
 30
0.0
 10
-25.49079340599434
 20
-181.1798241029557
 30
0.0
 10
-25.25378246041949
 20
-181.1189386232979
 30
0.0
 10
-24.57233688694651
 20
-180.8657661230037
 30
0.0
 10
-24.14404755063502
 20
-180.5962034115577
 30
0.0
 10
-23.78776062043345
 20
-180.2402654140028
 30
0.0
  0
SPLINE
  5
1F3
330
1C1
100
AcDbEntity
 67
     1
  8
0
  6
Continuous
 62
     7
370
    15
100
AcDbSpline
210
0.0
220
0.0
230
1.0
 70
    11
 71
     3
 72
    70
 73
    66
 74
     0
 42
0.000000001
 43
0.00000001
 40
0.0
 40
0.0
 40
0.0
 40
0.0
 40
0.0312499999999999
 40
0.0312499999999999
 40
0.0624999999999998
 40
0.0624999999999998
 40
0.0937499999999998
 40
0.0937499999999998
 40
0.1249999999999997
 40
0.1249999999999997
 40
0.1562499999999996
 40
0.1562499999999996
 40
0.1874999999999995
 40
0.1874999999999995
 40
0.2187499999999994
 40
0.2187499999999994
 40
0.2499999999999993
 40
0.2499999999999993
 40
0.2812499999999993
 40
0.2812499999999993
 40
0.3124999999999994
 40
0.3124999999999994
 40
0.3437499999999994
 40
0.3437499999999994
 40
0.3749999999999994
 40
0.3749999999999994
 40
0.4062499999999994
 40
0.4062499999999994
 40
0.4374999999999995
 40
0.4374999999999995
 40
0.4687499999999995
 40
0.4687499999999995
 40
0.4999999999999996
 40
0.4999999999999996
 40
0.5312499999999996
 40
0.5312499999999996
 40
0.5624999999999996
 40
0.5624999999999996
 40
0.5937499999999997
 40
0.5937499999999997
 40
0.6249999999999997
 40
0.6249999999999997
 40
0.6562499999999997
 40
0.6562499999999997
 40
0.6874999999999997
 40
0.6874999999999997
 40
0.7187499999999998
 40
0.7187499999999998
 40
0.7499999999999998
 40
0.7499999999999998
 40
0.7812499999999998
 40
0.7812499999999998
 40
0.8124999999999998
 40
0.8124999999999998
 40
0.8437499999999999
 40
0.8437499999999999
 40
0.8749999999999999
 40
0.8749999999999999
 40
0.9062499999999999
 40
0.9062499999999999
 40
0.9374999999999999
 40
0.9374999999999999
 40
0.96875
 40
0.96875
 40
1.0
 40
1.0
 40
1.0
 40
1.0
 10
-15.65337296516479
 20
-172.2294573850872
 30
0.0
 10
-15.46827411390842
 20
-172.0497028646124
 30
0.0
 10
-15.30549978089667
 20
-171.8537470964464
 30
0.0
 10
-15.02146393990983
 20
-171.4317110879113
 30
0.0
 10
-14.89933139650336
 20
-171.2028016466685
 30
0.0
 10
-14.70522210594893
 20
-170.7317666208256
 30
0.0
 10
-14.63218101698796
 20
-170.4891954585338
 30
0.0
 10
-14.53241718506848
 20
-169.9904625634778
 30
0.0
 10
-14.50656083819277
 20
-169.7359738984011
 30
0.0
 10
-14.50171736394785
 20
-169.2334375457858
 30
0.0
 10
-14.52238050840452
 20
-168.9820833437992
 30
0.0
 10
-14.60921984541305
 20
-168.4850562008154
 30
0.0
 10
-14.67431517504422
 20
-168.2445120039029
 30
0.0
 10
-14.84560534057527
 20
-167.778550408496
 30
0.0
 10
-14.95304145120109
 20
-167.5511913311281
 30
0.0
 10
-15.20491070802555
 20
-167.1227194473897
 30
0.0
 10
-15.34832031841549
 20
-166.922386746252
 30
0.0
 10
-15.66975533750367
 20
-166.5492531350846
 30
0.0
 10
-15.84991793171973
 20
-166.3749231326896
 30
0.0
 10
-16.23537269516605
 20
-166.0662283727541
 30
0.0
 10
-16.44042086281027
 20
-165.9312408838157
 30
0.0
 10
-16.87579582689894
 20
-165.7009298135994
 30
0.0
 10
-17.10889506210508
 20
-165.6050431740654
 30
0.0
 10
-17.58369137313319
 20
-165.463608376377
 30
0.0
 10
-17.82638397566667
 20
-165.4168940889187
 30
0.0
 10
-18.32291126819873
 20
-165.3738112621218
 30
0.0
 10
-18.57826538704432
 20
-165.3782841389114
 30
0.0
 10
-19.07515142233649
 20
-165.4405593857188
 30
0.0
 10
-19.31975882585518
 20
-165.4977373290808
 30
0.0
 10
-19.80082789109668
 20
-165.6675050694045
 30
0.0
 10
-20.03120335534205
 20
-165.7783785692467
 30
0.0
 10
-20.46228414396744
 20
-166.0460679352506
 30
0.0
 10
-20.66689029707384
 20
-166.2059101866975
 30
0.0
 10
-21.0341545778842
 20
-166.5619541261674
 30
0.0
 10
-21.19743845841777
 20
-166.7575127785765
 30
0.0
 10
-21.48424852350779
 20
-167.1828948281755
 30
0.0
 10
-21.60556801392066
 20
-167.4103799214328
 30
0.0
 10
-21.79966352388591
 20
-167.8796347302317
 30
0.0
 10
-21.87419268549885
 20
-168.1258443077192
 30
0.0
 10
-21.97446910112382
 20
-168.6239546056817
 30
0.0
 10
-22.00050916359697
 20
-168.8744468390191
 30
0.0
 10
-22.00675610210712
 20
-169.3781862419929
 30
0.0
 10
-21.98633074421414
 20
-169.6323556318066
 30
0.0
 10
-21.90182696334733
 20
-170.1247082243445
 30
0.0
 10
-21.83796468975097
 20
-170.3652899873952
 30
0.0
 10
-21.666987843557
 20
-170.8352691608374
 30
0.0
 10
-21.56028017741012
 20
-171.06236321174
 30
0.0
 10
-21.31131511758437
 20
-171.4890243346172
 30
0.0
 10
-21.16840206703258
 20
-171.6905259947198
 30
0.0
 10
-20.84402373238768
 20
-172.0687739778913
 30
0.0
 10
-20.66551190913989
 20
-172.2416935318661
 30
0.0
 10
-20.28194478182733
 20
-172.5498972748489
 30
0.0
 10
-20.07607499993801
 20
-172.6861857516913
 30
0.0
 10
-19.63379134909994
 20
-172.9200859363178
 30
0.0
 10
-19.40411684533195
 20
-173.0140233520235
 30
0.0
 10
-18.93010054321435
 20
-173.1550387543062
 30
0.0
 10
-18.68351800346232
 20
-173.2024922659986
 30
0.0
 10
-18.18158448096983
 20
-173.2450238008218
 30
0.0
 10
-17.93169444235295
 20
-173.2400253464497
 30
0.0
 10
-17.43410139363194
 20
-173.1772215706909
 30
0.0
 10
-17.18332733636774
 20
-173.1180283408782
 30
0.0
 10
-16.7057251193731
 20
-172.9486477585938
 30
0.0
 10
-16.4775505131413
 20
-172.839056233711
 30
0.0
 10
-16.0428970942413
 20
-172.5690388964139
 30
0.0
 10
-15.83847181642116
 20
-172.409211905562
 30
0.0
 10
-15.65337296516479
 20
-172.2294573850872
 30
0.0
  0
SPLINE
  5
1F4
330
1C1
100
AcDbEntity
 67
     1
  8
0
  6
Continuous
 62
     7
370
    15
100
AcDbSpline
210
0.0
220
0.0
230
1.0
 70
    11
 71
     3
 72
    66
 73
    62
 74
     0
 42
0.000000001
 43
0.00000001
 40
0.0
 40
0.0
 40
0.0
 40
0.0
 40
0.0312500000000006
 40
0.0312500000000006
 40
0.0625000000000012
 40
0.0625000000000012
 40
0.0937500000000017
 40
0.0937500000000017
 40
0.1250000000000023
 40
0.1250000000000023
 40
0.1562500000000029
 40
0.1562500000000029
 40
0.1875000000000035
 40
0.1875000000000035
 40
0.2187500000000041
 40
0.2187500000000041
 40
0.2500000000000047
 40
0.2500000000000047
 40
0.2812500000000052
 40
0.2812500000000052
 40
0.3125000000000058
 40
0.3125000000000058
 40
0.3437500000000064
 40
0.3437500000000064
 40
0.375000000000007
 40
0.375000000000007
 40
0.4062500000000075
 40
0.4062500000000075
 40
0.4375000000000082
 40
0.4375000000000082
 40
0.4687500000000088
 40
0.4687500000000088
 40
0.5000000000000094
 40
0.5000000000000094
 40
0.5312500000000101
 40
0.5312500000000101
 40
0.5625000000000109
 40
0.5625000000000109
 40
0.6250000000000093
 40
0.6250000000000093
 40
0.6562500000000085
 40
0.6562500000000085
 40
0.6875000000000078
 40
0.6875000000000078
 40
0.7187500000000071
 40
0.7187500000000071
 40
0.7500000000000063
 40
0.7500000000000063
 40
0.7812500000000056
 40
0.7812500000000056
 40
0.8125000000000048
 40
0.8125000000000048
 40
0.8437500000000041
 40
0.8437500000000041
 40
0.8750000000000033
 40
0.8750000000000033
 40
0.9062500000000027
 40
0.9062500000000027
 40
0.937500000000002
 40
0.937500000000002
 40
1.0
 40
1.0
 40
1.0
 40
1.0
 10
4.103652931798278
 20
-181.6829874443592
 30
0.0
 10
4.277625947706435
 20
-181.6298257003411
 30
0.0
 10
4.44372581876322
 20
-181.5606162562843
 30
0.0
 10
4.761030426366322
 20
-181.3918445590484
 30
0.0
 10
4.913535960429486
 20
-181.2911682122577
 30
0.0
 10
5.196306238946555
 20
-181.0631237993948
 30
0.0
 10
5.325526596158737
 20
-180.9370646946933
 30
0.0
 10
5.560122132561355
 20
-180.6613523394021
 30
0.0
 10
5.666253560352281
 20
-180.5099964348956
 30
0.0
 10
5.846146088717258
 20
-180.1939805358675
 30
0.0
 10
5.920830558071632
 20
-180.0287664657465
 30
0.0
 10
6.039236158977758
 20
-179.6837168269155
 30
0.0
 10
6.082604213311436
 20
-179.5032786957533
 30
0.0
 10
6.133582336034882
 20
-179.142991032512
 30
0.0
 10
6.142005081746841
 20
-178.9612529262736
 30
0.0
 10
6.123140176718705
 20
-178.594440216057
 30
0.0
 10
6.095676949626538
 20
-178.4122637955412
 30
0.0
 10
6.006615457759986
 20
-178.0600886524269
 30
0.0
 10
5.944434738382201
 20
-177.8874578659437
 30
0.0
 10
5.785640383139353
 20
-177.5568005520747
 30
0.0
 10
5.690941263321014
 20
-177.4021824040525
 30
0.0
 10
5.471566129553382
 20
-177.1139300070808
 30
0.0
 10
5.345195836913681
 20
-176.9791264456462
 30
0.0
 10
5.071732294469177
 20
-176.7420807530822
 30
0.0
 10
4.924261723634322
 20
-176.6386614121958
 30
0.0
 10
4.607694670356807
 20
-176.4622355267172
 30
0.0
 10
4.439902412727535
 20
-176.3904455660995
 30
0.0
 10
4.097302358541716
 20
-176.2834526777148
 30
0.0
 10
3.919544297918243
 20
-176.24719232109
 30
0.0
 10
3.559508981697289
 20
-176.2112558356165
 30
0.0
 10
3.380182121533151
 20
-176.2115794935058
 30
0.0
 10
3.022849174305672
 20
-176.2473435123979
 30
0.0
 10
2.843330807825974
 20
-176.2835005067066
 30
0.0
 10
2.499198944847547
 20
-176.3884935289065
 30
0.0
 10
2.333227078884347
 20
-176.457169656569
 30
0.0
 10
2.013457818296632
 20
-176.6268549643019
 30
0.0
 10
1.860773508606027
 20
-176.727727704945
 30
0.0
 10
1.439455401408364
 20
-177.066754837297
 30
0.0
 10
1.198048216936465
 20
-177.3499385727712
 30
0.0
 10
0.9284775268785985
 20
-177.821885796307
 30
0.0
 10
0.8523922835036047
 20
-177.9894335336837
 30
0.0
 10
0.7333081942790072
 20
-178.3359807624308
 30
0.0
 10
0.6907390474455068
 20
-178.5127193099054
 30
0.0
 10
0.6392777817973236
 20
-178.8730704854546
 30
0.0
 10
0.630654252574997
 20
-179.0587799238905
 30
0.0
 10
0.6493991401457302
 20
-179.4235587179174
 30
0.0
 10
0.6762284434966622
 20
-179.6032936501338
 30
0.0
 10
0.7654661965091989
 20
-179.9573542149272
 30
0.0
 10
0.8285237526667131
 20
-180.1318598484739
 30
0.0
 10
0.9855544695143957
 20
-180.4591091041236
 30
0.0
 10
1.079909763950648
 20
-180.614030867374
 30
0.0
 10
1.301751582982975
 20
-180.9056725939689
 30
0.0
 10
1.426243280670229
 20
-181.0382248159553
 30
0.0
 10
1.698680339598645
 20
-181.274812793181
 30
0.0
 10
1.848925865437933
 20
-181.3803243895507
 30
0.0
 10
2.165057872967477
 20
-181.5565436889931
 30
0.0
 10
2.330187005590022
 20
-181.6274347429789
 30
0.0
 10
2.674342068845292
 20
-181.7353302452898
 30
0.0
 10
2.85372097007874
 20
-181.7718630878152
 30
0.0
 10
3.389377287663795
 20
-181.8257723905482
 30
0.0
 10
3.755706899981982
 20
-181.7893109323953
 30
0.0
 10
4.103652931798278
 20
-181.6829874443592
 30
0.0
  0
SPLINE
  5
1F5
330
1C1
100
AcDbEntity
 67
     1
  8
0
  6
Continuous
 62
     7
370
    15
100
AcDbSpline
210
0.0
220
0.0
230
1.0
 70
    11
 71
     3
 72
    68
 73
    64
 74
     0
 42
0.000000001
 43
0.00000001
 40
0.0
 40
0.0
 40
0.0
 40
0.0
 40
0.03125
 40
0.03125
 40
0.0625
 40
0.0625
 40
0.0937499999999999
 40
0.0937499999999999
 40
0.1249999999999999
 40
0.1249999999999999
 40
0.1562499999999999
 40
0.1562499999999999
 40
0.1874999999999999
 40
0.1874999999999999
 40
0.2187499999999999
 40
0.2187499999999999
 40
0.2499999999999998
 40
0.2499999999999998
 40
0.2812499999999998
 40
0.2812499999999998
 40
0.3124999999999998
 40
0.3124999999999998
 40
0.3437499999999998
 40
0.3437499999999998
 40
0.3749999999999998
 40
0.3749999999999998
 40
0.4062499999999997
 40
0.4062499999999997
 40
0.4374999999999997
 40
0.4374999999999997
 40
0.4687499999999997
 40
0.4687499999999997
 40
0.4999999999999997
 40
0.4999999999999997
 40
0.5312499999999997
 40
0.5312499999999997
 40
0.5624999999999997
 40
0.5624999999999997
 40
0.5937499999999996
 40
0.5937499999999996
 40
0.6249999999999996
 40
0.6249999999999996
 40
0.6562499999999996
 40
0.6562499999999996
 40
0.6874999999999996
 40
0.6874999999999996
 40
0.7187499999999996
 40
0.7187499999999996
 40
0.7499999999999996
 40
0.7499999999999996
 40
0.7812499999999994
 40
0.7812499999999994
 40
0.8124999999999994
 40
0.8124999999999994
 40
0.8437499999999994
 40
0.8437499999999994
 40
0.8749999999999994
 40
0.8749999999999994
 40
0.9374999999999996
 40
0.9374999999999996
 40
0.9687499999999998
 40
0.9687499999999998
 40
1.0
 40
1.0
 40
1.0
 40
1.0
 10
9.020646919204271
 20
-187.2876259985469
 30
0.0
 10
9.146487456923563
 20
-187.1536828981928
 30
0.0
 10
9.258054227194286
 20
-187.0098739991683
 30
0.0
 10
9.453305556504699
 20
-186.7029828106381
 30
0.0
 10
9.537681495376003
 20
-186.5379404947568
 30
0.0
 10
9.672039997822651
 20
-186.1974495296944
 30
0.0
 10
9.722214024358262
 20
-186.0228120220275
 30
0.0
 10
9.788310878767023
 20
-185.6646920808177
 30
0.0
 10
9.803830798487029
 20
-185.479990361214
 30
0.0
 10
9.79799170556922
 20
-185.1181536979159
 30
0.0
 10
9.77723044536817
 20
-184.9390668040765
 30
0.0
 10
9.698814777280317
 20
-184.5846812470808
 30
0.0
 10
9.641694595660606
 20
-184.4130414586533
 30
0.0
 10
9.495264483577015
 20
-184.0878929346146
 30
0.0
 10
9.404512238433798
 20
-183.93164082416
 30
0.0
 10
9.194228374274163
 20
-183.6434861853493
 30
0.0
 10
9.075849609383049
 20
-183.5123880123516
 30
0.0
 10
8.813281314864598
 20
-183.2754911586453
 30
0.0
 10
8.668171189330172
 20
-183.1696352813652
 30
0.0
 10
8.364341085594408
 20
-182.9922392165507
 30
0.0
 10
8.204301607955667
 20
-182.9192741883162
 30
0.0
 10
7.867776099416512
 20
-182.8051754099263
 30
0.0
 10
7.695039769471865
 20
-182.7654767618816
 30
0.0
 10
7.345602387824715
 20
-182.7201846407971
 30
0.0
 10
7.166568967733953
 20
-182.714486220585
 30
0.0
 10
6.810513001906757
 20
-182.73775548503
 30
0.0
 10
6.635236742016995
 20
-182.7662657055735
 30
0.0
 10
6.290058137350826
 20
-182.8562520228458
 30
0.0
 10
6.118595614109143
 20
-182.918673518198
 30
0.0
 10
5.793646374950515
 20
-183.07291440157
 30
0.0
 10
5.639099785807282
 20
-183.1646635392128
 30
0.0
 10
5.346059956167123
 20
-183.3777783121249
 30
0.0
 10
5.207527752639173
 20
-183.4998051080364
 30
0.0
 10
4.958928954221737
 20
-183.7638867979109
 30
0.0
 10
4.847146251677821
 20
-183.9070074757131
 30
0.0
 10
4.649737790788785
 20
-184.2164001463155
 30
0.0
 10
4.565868625155979
 20
-184.3805103616197
 30
0.0
 10
4.431974551674021
 20
-184.7184615529637
 30
0.0
 10
4.380904166135521
 20
-184.8946166799107
 30
0.0
 10
4.314072562598966
 20
-185.2556942452711
 30
0.0
 10
4.298888136895943
 20
-185.4363725220376
 30
0.0
 10
4.304239064842671
 20
-185.7980044124146
 30
0.0
 10
4.325416450105877
 20
-185.9810026861883
 30
0.0
 10
4.403190683818059
 20
-186.3330738570036
 30
0.0
 10
4.459343530013336
 20
-186.5030022278296
 30
0.0
 10
4.606397961119554
 20
-186.830566900844
 30
0.0
 10
4.697309606890654
 20
-186.9870376704029
 30
0.0
 10
4.905910693055747
 20
-187.2736291185832
 30
0.0
 10
5.025131576939765
 20
-187.4063058058519
 30
0.0
 10
5.289611343990916
 20
-187.6452513641646
 30
0.0
 10
5.431934376953052
 20
-187.749166816045
 30
0.0
 10
5.73585817550275
 20
-187.9272404051713
 30
0.0
 10
5.899203035924456
 20
-188.0017601462701
 30
0.0
 10
6.233248596143652
 20
-188.115236747609
 30
0.0
 10
6.404734132119184
 20
-188.155047381436
 30
0.0
 10
6.7565748584968
 20
-188.2009993917443
 30
0.0
 10
6.936153453947346
 20
-188.2066155877451
 30
0.0
 10
7.466356955509553
 20
-188.1722999177549
 30
0.0
 10
7.821054197842613
 20
-188.0797282623567
 30
0.0
 10
8.306791252737916
 20
-187.8494274587804
 30
0.0
 10
8.463459958806563
 20
-187.7565792506924
 30
0.0
 10
8.758089931366717
 20
-187.5420272715188
 30
0.0
 10
8.894806381484974
 20
-187.421569098901
 30
0.0
 10
9.020646919204268
 20
-187.2876259985469
 30
0.0
  0
SPLINE
  5
1F6
330
1C1
100
AcDbEntity
 67
     1
  8
0
  6
Continuous
 62
     7
370
    15
100
AcDbSpline
210
0.0
220
0.0
230
1.0
 70
    11
 71
     3
 72
    64
 73
    60
 74
     0
 42
0.000000001
 43
0.00000001
 40
0.0
 40
0.0
 40
0.0
 40
0.0
 40
0.0312500000000001
 40
0.0312500000000001
 40
0.0625000000000003
 40
0.0625000000000003
 40
0.0937500000000004
 40
0.0937500000000004
 40
0.1250000000000006
 40
0.1250000000000006
 40
0.1875000000000008
 40
0.1875000000000008
 40
0.218750000000001
 40
0.218750000000001
 40
0.2500000000000012
 40
0.2500000000000012
 40
0.2812500000000014
 40
0.2812500000000014
 40
0.3125000000000016
 40
0.3125000000000016
 40
0.3437500000000014
 40
0.3437500000000014
 40
0.3750000000000014
 40
0.3750000000000014
 40
0.4062500000000013
 40
0.4062500000000013
 40
0.4375000000000012
 40
0.4375000000000012
 40
0.4687500000000011
 40
0.4687500000000011
 40
0.500000000000001
 40
0.500000000000001
 40
0.5312500000000009
 40
0.5312500000000009
 40
0.5625000000000008
 40
0.5625000000000008
 40
0.5937500000000008
 40
0.5937500000000008
 40
0.6250000000000007
 40
0.6250000000000007
 40
0.6562500000000006
 40
0.6562500000000006
 40
0.6875000000000004
 40
0.6875000000000004
 40
0.7187500000000004
 40
0.7187500000000004
 40
0.7500000000000003
 40
0.7500000000000003
 40
0.7812500000000002
 40
0.7812500000000002
 40
0.8125000000000001
 40
0.8125000000000001
 40
0.8437500000000001
 40
0.8437500000000001
 40
0.875
 40
0.875
 40
0.9375
 40
0.9375
 40
1.0
 40
1.0
 40
1.0
 40
1.0
 10
8.88741957411439
 20
-194.6682170587606
 30
0.0
 10
9.017395268347876
 20
-194.5371763145773
 30
0.0
 10
9.132756699028036
 20
-194.3960432366669
 30
0.0
 10
9.335013042135188
 20
-194.0941203110845
 30
0.0
 10
9.422619413920058
 20
-193.9312718917648
 30
0.0
 10
9.562003740073251
 20
-193.5966597558762
 30
0.0
 10
9.61437597352941
 20
-193.4249278911112
 30
0.0
 10
9.684363146852593
 20
-193.0725827513004
 30
0.0
 10
9.701379944756377
 20
-192.8922656835383
 30
0.0
 10
9.697456376198625
 20
-192.362454688243
 30
0.0
 10
9.620943562761045
 20
-192.0111035903391
 30
0.0
 10
9.409180398791749
 20
-191.5370325799889
 30
0.0
 10
9.321173620837067
 20
-191.3847543238723
 30
0.0
 10
9.118701829148923
 20
-191.1054212494527
 30
0.0
 10
9.004259557417615
 20
-190.9774619373229
 30
0.0
 10
8.749228026144161
 20
-190.7447097218727
 30
0.0
 10
8.608702870482013
 20
-190.6405830415761
 30
0.0
 10
8.312977807772528
 20
-190.4639756635195
 30
0.0
 10
8.15648085152722
 20
-190.3902044669175
 30
0.0
 10
7.825704295058628
 20
-190.2725844969138
 30
0.0
 10
7.655841544699121
 20
-190.2303856952073
 30
0.0
 10
7.309747214710085
 20
-190.1785049591335
 30
0.0
 10
7.131639540409092
 20
-190.1687803858979
 30
0.0
 10
6.774948338965102
 20
-190.1833919155341
 30
0.0
 10
6.598616900002234
 20
-190.2073285503546
 30
0.0
 10
6.249937707201624
 20
-190.2880606462158
 30
0.0
 10
6.075750476001749
 20
-190.3458160870598
 30
0.0
 10
5.743986217922052
 20
-190.4916293235231
 30
0.0
 10
5.585784701284354
 20
-190.5793892345308
 30
0.0
 10
5.285003929442162
 20
-190.7851138530304
 30
0.0
 10
5.142104950640688
 20
-190.9039838289866
 30
0.0
 10
4.885492962616277
 20
-191.1622977199
 30
0.0
 10
4.76993960227768
 20
-191.3027746941534
 30
0.0
 10
4.565457751477884
 20
-191.6073631352742
 30
0.0
 10
4.478769258360573
 20
-191.7686255089798
 30
0.0
 10
4.339681094406883
 20
-192.1013778412573
 30
0.0
 10
4.286213253604354
 20
-192.2757644723814
 30
0.0
 10
4.215933984324811
 20
-192.6290578650098
 30
0.0
 10
4.199104021880078
 20
-192.8059628257633
 30
0.0
 10
4.201281005639562
 20
-193.1602757355674
 30
0.0
 10
4.220900427199346
 20
-193.3387321237299
 30
0.0
 10
4.294677707090528
 20
-193.6807110388706
 30
0.0
 10
4.348627731463772
 20
-193.8461403649081
 30
0.0
 10
4.491051632860017
 20
-194.1657393365731
 30
0.0
 10
4.578122394479665
 20
-194.3163060153429
 30
0.0
 10
4.779754589239866
 20
-194.5952277731433
 30
0.0
 10
4.895971286771557
 20
-194.7254978489311
 30
0.0
 10
5.151499272793531
 20
-194.9588154999438
 30
0.0
 10
5.289611424970954
 20
-195.0613055956328
 30
0.0
 10
5.585974536753727
 20
-195.2386997910359
 30
0.0
 10
5.745647112942625
 20
-195.3138294048491
 30
0.0
 10
6.07315270926238
 20
-195.4302982681512
 30
0.0
 10
6.242103231437188
 20
-195.4725952895469
 30
0.0
 10
6.590518693724486
 20
-195.524948122908
 30
0.0
 10
6.76930166413835
 20
-195.5344786078886
 30
0.0
 10
7.299502035102734
 20
-195.5127924312056
 30
0.0
 10
7.658344255392691
 20
-195.4299645486289
 30
0.0
 10
8.318465093199576
 20
-195.1400610651179
 30
0.0
 10
8.62746818564742
 20
-194.9302985471271
 30
0.0
 10
8.88741957411439
 20
-194.6682170587606
 30
0.0
  0
SPLINE
  5
1F7
330
1C1
100
AcDbEntity
 67
     1
  8
0
  6
Continuous
 62
     7
370
    15
100
AcDbSpline
210
0.0
220
0.0
230
1.0
 70
    11
 71
     3
 72
    66
 73
    62
 74
     0
 42
0.000000001
 43
0.00000001
 40
0.0
 40
0.0
 40
0.0
 40
0.0
 40
0.0312500000000017
 40
0.0312500000000017
 40
0.0625000000000034
 40
0.0625000000000034
 40
0.0937500000000051
 40
0.0937500000000051
 40
0.1250000000000067
 40
0.1250000000000067
 40
0.1875000000000059
 40
0.1875000000000059
 40
0.2187500000000055
 40
0.2187500000000055
 40
0.2500000000000052
 40
0.2500000000000052
 40
0.2812500000000048
 40
0.2812500000000048
 40
0.3125000000000046
 40
0.3125000000000046
 40
0.3437500000000043
 40
0.3437500000000043
 40
0.3750000000000041
 40
0.3750000000000041
 40
0.4062500000000039
 40
0.4062500000000039
 40
0.4375000000000037
 40
0.4375000000000037
 40
0.4687500000000036
 40
0.4687500000000036
 40
0.5000000000000033
 40
0.5000000000000033
 40
0.5312500000000031
 40
0.5312500000000031
 40
0.5625000000000029
 40
0.5625000000000029
 40
0.5937500000000028
 40
0.5937500000000028
 40
0.6250000000000026
 40
0.6250000000000026
 40
0.6562500000000023
 40
0.6562500000000023
 40
0.6875000000000021
 40
0.6875000000000021
 40
0.7187500000000019
 40
0.7187500000000019
 40
0.7500000000000017
 40
0.7500000000000017
 40
0.7812500000000016
 40
0.7812500000000016
 40
0.8125000000000013
 40
0.8125000000000013
 40
0.8437500000000011
 40
0.8437500000000011
 40
0.8750000000000009
 40
0.8750000000000009
 40
0.9062500000000007
 40
0.9062500000000007
 40
0.9375000000000006
 40
0.9375000000000006
 40
1.0
 40
1.0
 40
1.0
 40
1.0
 10
5.0549969951653
 20
-200.9959713092837
 30
0.0
 10
5.185513537954251
 20
-200.8674942950501
 30
0.0
 10
5.300700200602925
 20
-200.7293014458643
 30
0.0
 10
5.501791219178468
 20
-200.4343553739335
 30
0.0
 10
5.588370056592249
 20
-200.2756350740492
 30
0.0
 10
5.725590532496754
 20
-199.9502280412164
 30
0.0
 10
5.776818876681716
 20
-199.7835641313091
 30
0.0
 10
5.844982283793922
 20
-199.4424144394858
 30
0.0
 10
5.861363364705286
 20
-199.2682059716945
 30
0.0
 10
5.85711562705194
 20
-198.7561720507083
 30
0.0
 10
5.782587401864799
 20
-198.4166206776376
 30
0.0
 10
5.576626689316559
 20
-197.9557522673144
 30
0.0
 10
5.491158316156517
 20
-197.8073401038613
 30
0.0
 10
5.292926969631025
 20
-197.532402086083
 30
0.0
 10
5.180789885333271
 20
-197.4059882885036
 30
0.0
 10
4.930793149196255
 20
-197.1749972027751
 30
0.0
 10
4.791634304537308
 20
-197.0699465278976
 30
0.0
 10
4.497916047173299
 20
-196.8905605618312
 30
0.0
 10
4.342413307630454
 20
-196.8150281297636
 30
0.0
 10
4.013722591030263
 20
-196.6929472014905
 30
0.0
 10
3.840957263610032
 20
-196.6470297229579
 30
0.0
 10
3.492193078760818
 20
-196.5889011910474
 30
0.0
 10
3.314431492494944
 20
-196.5759413378395
 30
0.0
 10
2.951776429613339
 20
-196.584042351598
 30
0.0
 10
2.771501060709978
 20
-196.6051518576364
 30
0.0
 10
2.41769465516282
 20
-196.6802541838995
 30
0.0
 10
2.24175723357287
 20
-196.7349728303518
 30
0.0
 10
1.903326674062941
 20
-196.8767010880487
 30
0.0
 10
1.742858081944219
 20
-196.9624703865237
 30
0.0
 10
1.439241369631273
 20
-197.1635255321136
 30
0.0
 10
1.295061861368449
 20
-197.2802254509248
 30
0.0
 10
1.037042454786672
 20
-197.533969573747
 30
0.0
 10
0.9216330097977007
 20
-197.6716930043313
 30
0.0
 10
0.7184872229861272
 20
-197.9692182430132
 30
0.0
 10
0.6325954003899674
 20
-198.1268870010636
 30
0.0
 10
0.4956274840279681
 20
-198.4509322695835
 30
0.0
 10
0.4433913748426504
 20
-198.6201954774707
 30
0.0
 10
0.3750024075804487
 20
-198.9625459219526
 30
0.0
 10
0.3588337476730851
 20
-199.1337751667149
 30
0.0
 10
0.3613700144136636
 20
-199.476328185697
 30
0.0
 10
0.380643420822324
 20
-199.6487532385582
 30
0.0
 10
0.4526951152800177
 20
-199.9798472573273
 30
0.0
 10
0.5052654013880967
 20
-200.1401673844946
 30
0.0
 10
0.6436829482737725
 20
-200.4502848558994
 30
0.0
 10
0.7289294868704854
 20
-200.597988266912
 30
0.0
 10
0.9259382496507769
 20
-200.8715288925637
 30
0.0
 10
1.038751727487705
 20
-200.9991026026368
 30
0.0
 10
1.29106586285338
 20
-201.2320730069196
 30
0.0
 10
1.427553469420608
 20
-201.3348781445958
 30
0.0
 10
1.720555460311437
 20
-201.5139714494782
 30
0.0
 10
1.878869117493988
 20
-201.5908504776226
 30
0.0
 10
2.207485902126931
 20
-201.7125964985408
 30
0.0
 10
2.376951610447247
 20
-201.7576125313636
 30
0.0
 10
2.726216396197254
 20
-201.8158946838719
 30
0.0
 10
2.907754433378226
 20
-201.8288815579551
 30
0.0
 10
3.266719387328828
 20
-201.8206382248964
 30
0.0
 10
3.445510936232198
 20
-201.7999416246811
 30
0.0
 10
3.801675733623088
 20
-201.724405873454
 30
0.0
 10
3.978295315719117
 20
-201.6692326173126
 30
0.0
 10
4.481520729491305
 20
-201.4586170153056
 30
0.0
 10
4.793963909587416
 20
-201.252925337751
 30
0.0
 10
5.0549969951653
 20
-200.9959713092837
 30
0.0
  0
SPLINE
  5
1F8
330
1C1
100
AcDbEntity
 67
     1
  8
0
  6
Continuous
 62
     7
370
    15
100
AcDbSpline
210
0.0
220
0.0
230
1.0
 70
    11
 71
     3
 72
    64
 73
    60
 74
     0
 42
0.000000001
 43
0.00000001
 40
0.0
 40
0.0
 40
0.0
 40
0.0
 40
0.031250000000001
 40
0.031250000000001
 40
0.062500000000002
 40
0.062500000000002
 40
0.093750000000003
 40
0.093750000000003
 40
0.125000000000004
 40
0.125000000000004
 40
0.156250000000005
 40
0.156250000000005
 40
0.1875000000000061
 40
0.1875000000000061
 40
0.2500000000000038
 40
0.2500000000000038
 40
0.2812500000000026
 40
0.2812500000000026
 40
0.3125000000000013
 40
0.3125000000000013
 40
0.3437500000000001
 40
0.3437500000000001
 40
0.3749999999999989
 40
0.3749999999999989
 40
0.4062499999999977
 40
0.4062499999999977
 40
0.4374999999999964
 40
0.4374999999999964
 40
0.4687499999999951
 40
0.4687499999999951
 40
0.4999999999999938
 40
0.4999999999999938
 40
0.5312499999999925
 40
0.5312499999999925
 40
0.5624999999999911
 40
0.5624999999999911
 40
0.6249999999999886
 40
0.6249999999999886
 40
0.6562499999999896
 40
0.6562499999999896
 40
0.6874999999999906
 40
0.6874999999999906
 40
0.7187499999999916
 40
0.7187499999999916
 40
0.7499999999999926
 40
0.7499999999999926
 40
0.7812499999999937
 40
0.7812499999999937
 40
0.8124999999999947
 40
0.8124999999999947
 40
0.8437499999999957
 40
0.8437499999999957
 40
0.8749999999999966
 40
0.8749999999999966
 40
0.9062499999999974
 40
0.9062499999999974
 40
0.9374999999999983
 40
0.9374999999999983
 40
1.0
 40
1.0
 40
1.0
 40
1.0
 10
-1.488844911833081
 20
-204.6164087233329
 30
0.0
 10
-1.359885233710002
 20
-204.4927005647233
 30
0.0
 10
-1.246346306522857
 20
-204.3596128497316
 30
0.0
 10
-1.048291064924206
 20
-204.0757737495886
 30
0.0
 10
-0.9631234925869224
 20
-203.9232846671202
 30
0.0
 10
-0.8271613981317211
 20
-203.6089862709042
 30
0.0
 10
-0.7761993249882239
 20
-203.4479319673798
 30
0.0
 10
-0.7074866646250393
 20
-203.1181926280264
 30
0.0
 10
-0.6900673245603413
 20
-202.9484924779974
 30
0.0
 10
-0.6901528451619096
 20
-202.6149263438194
 30
0.0
 10
-0.7071290823795666
 20
-202.4494728610745
 30
0.0
 10
-0.7754337580443381
 20
-202.1212598392698
 30
0.0
 10
-0.8267546228147727
 20
-201.9602199227644
 30
0.0
 10
-1.026482404047593
 20
-201.5003556964415
 30
0.0
 10
-1.226090796652134
 20
-201.2150040530238
 30
0.0
 10
-1.598906731734661
 20
-200.859915123585
 30
0.0
 10
-1.737426504467526
 20
-200.7514794251986
 30
0.0
 10
-2.034780013749359
 20
-200.562677261253
 30
0.0
 10
-2.191897519801386
 20
-200.4829567716512
 30
0.0
 10
-2.522974185063658
 20
-200.3528227820291
 30
0.0
 10
-2.698918040733687
 20
-200.3022564342147
 30
0.0
 10
-3.053961266798499
 20
-200.2359486906712
 30
0.0
 10
-3.234082612861525
 20
-200.219420330377
 30
0.0
 10
-3.599645585905442
 20
-200.2204030693825
 30
0.0
 10
-3.784097722354805
 20
-200.2383813238901
 30
0.0
 10
-4.141388136145762
 20
-200.3073940476164
 30
0.0
 10
-4.317133104499587
 20
-200.3586741652607
 30
0.0
 10
-4.657529477909351
 20
-200.494468528266
 30
0.0
 10
-4.817932998431466
 20
-200.5771113314462
 30
0.0
 10
-5.119912474652963
 20
-200.770736979068
 30
0.0
 10
-5.262693633144046
 20
-200.8831719013399
 30
0.0
 10
-5.51812157514633
 20
-201.1281262341204
 30
0.0
 10
-5.631928319185451
 20
-201.260968213178
 30
0.0
 10
-5.831857511045887
 20
-201.5472744767469
 30
0.0
 10
-5.916788978590972
 20
-201.6996997240039
 30
0.0
 10
-6.119945710292085
 20
-202.1688739165304
 30
0.0
 10
-6.190025752588102
 20
-202.5074805678974
 30
0.0
 10
-6.19015201399027
 20
-203.0077895169851
 30
0.0
 10
-6.172788492211039
 20
-203.176503562658
 30
0.0
 10
-6.104505050504497
 20
-203.5036748093599
 30
0.0
 10
-6.054029067607313
 20
-203.6623733600223
 30
0.0
 10
-5.920528611005592
 20
-203.970032957458
 30
0.0
 10
-5.836630440888468
 20
-204.119667421716
 30
0.0
 10
-5.642260460104762
 20
-204.3966843057102
 30
0.0
 10
-5.531306587857811
 20
-204.5256815117627
 30
0.0
 10
-5.280996706897432
 20
-204.7640663912233
 30
0.0
 10
-5.142255788012122
 20
-204.8723042544317
 30
0.0
 10
-4.847626780324266
 20
-205.0593366676988
 30
0.0
 10
-4.690489231232035
 20
-205.1394149362452
 30
0.0
 10
-4.35531079846949
 20
-205.2709914087467
 30
0.0
 10
-4.182761432620498
 20
-205.3202914172255
 30
0.0
 10
-3.829024155884532
 20
-205.3864768029503
 30
0.0
 10
-3.645557775753902
 20
-205.4033583970328
 30
0.0
 10
-3.279898685691081
 20
-205.4022013678066
 30
0.0
 10
-3.098852381174003
 20
-205.3846239525108
 30
0.0
 10
-2.740310430641913
 20
-205.315620355841
 30
0.0
 10
-2.561980903937276
 20
-205.2634373978825
 30
0.0
 10
-2.056700077727177
 20
-205.062092767486
 30
0.0
 10
-1.746764268079237
 20
-204.8638250405519
 30
0.0
 10
-1.488844911833081
 20
-204.6164087233328
 30
0.0
  0
SPLINE
  5
1F9
330
1C1
100
AcDbEntity
 67
     1
  8
0
  6
Continuous
 62
     7
370
    15
100
AcDbSpline
210
0.0
220
0.0
230
1.0
 70
    11
 71
     3
 72
    66
 73
    62
 74
     0
 42
0.000000001
 43
0.00000001
 40
0.0
 40
0.0
 40
0.0
 40
0.0
 40
0.0312500000000008
 40
0.0312500000000008
 40
0.0625000000000016
 40
0.0625000000000016
 40
0.0937500000000025
 40
0.0937500000000025
 40
0.1250000000000033
 40
0.1250000000000033
 40
0.1562500000000041
 40
0.1562500000000041
 40
0.1875000000000049
 40
0.1875000000000049
 40
0.2187500000000057
 40
0.2187500000000057
 40
0.2500000000000066
 40
0.2500000000000066
 40
0.2812500000000074
 40
0.2812500000000074
 40
0.3125000000000082
 40
0.3125000000000082
 40
0.343750000000009
 40
0.343750000000009
 40
0.3750000000000098
 40
0.3750000000000098
 40
0.4062500000000107
 40
0.4062500000000107
 40
0.4375000000000114
 40
0.4375000000000114
 40
0.4687500000000123
 40
0.4687500000000123
 40
0.5000000000000131
 40
0.5000000000000131
 40
0.5312500000000139
 40
0.5312500000000139
 40
0.5625000000000148
 40
0.5625000000000148
 40
0.6250000000000124
 40
0.6250000000000124
 40
0.6562500000000114
 40
0.6562500000000114
 40
0.6875000000000103
 40
0.6875000000000103
 40
0.7187500000000093
 40
0.7187500000000093
 40
0.7500000000000082
 40
0.7500000000000082
 40
0.7812500000000071
 40
0.7812500000000071
 40
0.8125000000000061
 40
0.8125000000000061
 40
0.843750000000005
 40
0.843750000000005
 40
0.8750000000000039
 40
0.8750000000000039
 40
0.9062500000000029
 40
0.9062500000000029
 40
0.9375000000000018
 40
0.9375000000000018
 40
1.0
 40
1.0
 40
1.0
 40
1.0
 10
-9.028640006632857
 20
-204.5940422617044
 30
0.0
 10
-8.899417237505807
 20
-204.4772551022784
 30
0.0
 10
-8.78486651767047
 20
-204.3506782126844
 30
0.0
 10
-8.583511357197144
 20
-204.0790014306366
 30
0.0
 10
-8.496083919584244
 20
-203.9324444497322
 30
0.0
 10
-8.353749290231875
 20
-203.6268760789868
 30
0.0
 10
-8.29914782381492
 20
-203.4693796231191
 30
0.0
 10
-8.222422780903615
 20
-203.1451474719803
 30
0.0
 10
-8.200440349438743
 20
-202.9766978285096
 30
0.0
 10
-8.191622150157784
 20
-202.6425601748244
 30
0.0
 10
-8.204230646869476
 20
-202.4760361444385
 30
0.0
 10
-8.263974436904475
 20
-202.1441010970474
 30
0.0
 10
-8.31171398162591
 20
-201.9783386784725
 30
0.0
 10
-8.438706976759741
 20
-201.6623907874784
 30
0.0
 10
-8.518140382743635
 20
-201.5103195409933
 30
0.0
 10
-8.71033986333697
 20
-201.2185342164474
 30
0.0
 10
-8.821880751255765
 20
-201.081254923158
 30
0.0
 10
-9.069476387511099
 20
-200.8310530545212
 30
0.0
 10
-9.207300773325448
 20
-200.7162300482597
 30
0.0
 10
-9.506586201252954
 20
-200.5130248182126
 30
0.0
 10
-9.664714844447928
 20
-200.4266223064087
 30
0.0
 10
-9.997596588692561
 20
-200.2835991935625
 30
0.0
 10
-10.17442150869352
 20
-200.2267329187722
 30
0.0
 10
-10.53100452451011
 20
-200.1483377896054
 30
0.0
 10
-10.71163521988704
 20
-200.1260134782712
 30
0.0
 10
-11.07760843355415
 20
-200.1153533718827
 30
0.0
 10
-11.26130224735092
 20
-200.1274674199452
 30
0.0
 10
-11.61736932796238
 20
-200.1846039254013
 30
0.0
 10
-11.79285943064517
 20
-200.2299859680795
 30
0.0
 10
-12.13057196647538
 20
-200.352689094383
 30
0.0
 10
-12.29002637640621
 20
-200.4287232366002
 30
0.0
 10
-12.59088772419896
 20
-200.6089608330757
 30
0.0
 10
-12.73332252880669
 20
-200.7144067367895
 30
0.0
 10
-12.98922971778724
 20
-200.9457451968051
 30
0.0
 10
-13.10396477721662
 20
-201.0720583235463
 30
0.0
 10
-13.30704382658308
 20
-201.3459250901136
 30
0.0
 10
-13.39447147201567
 20
-201.4929111868106
 30
0.0
 10
-13.60655738020989
 20
-201.9479835188729
 30
0.0
 10
-13.68534564582478
 20
-202.2812095808965
 30
0.0
 10
-13.69877403718194
 20
-202.7802901712686
 30
0.0
 10
-13.68611701631139
 20
-202.9491798642798
 30
0.0
 10
-13.62599360217492
 20
-203.2821864091031
 30
0.0
 10
-13.57921814093662
 20
-203.4443585858155
 30
0.0
 10
-13.45250300590853
 20
-203.7601190916438
 30
0.0
 10
-13.37132613055573
 20
-203.9152974391966
 30
0.0
 10
-13.18021694140459
 20
-204.205083637888
 30
0.0
 10
-13.07043596755127
 20
-204.3404733198009
 30
0.0
 10
-12.82186033721175
 20
-204.5918820649618
 30
0.0
 10
-12.68237358945779
 20
-204.7078010961479
 30
0.0
 10
-12.38632254114846
 20
-204.9088623742839
 30
0.0
 10
-12.22838141695901
 20
-204.9956218339955
 30
0.0
 10
-11.89175149735068
 20
-205.1403304281361
 30
0.0
 10
-11.71757784204306
 20
-205.1961812806808
 30
0.0
 10
-11.36217841357883
 20
-205.2746301295875
 30
0.0
 10
-11.17814032551165
 20
-205.297498631312
 30
0.0
 10
-10.81266504038898
 20
-205.3081973537965
 30
0.0
 10
-10.6319123335463
 20
-205.2964886298125
 30
0.0
 10
-10.27430789991066
 20
-205.2395262265937
 30
0.0
 10
-10.0973220049614
 20
-205.1937277501457
 30
0.0
 10
-9.595275320906525
 20
-205.0118776183716
 30
0.0
 10
-9.287085544886946
 20
-204.8276165805562
 30
0.0
 10
-9.028640006632857
 20
-204.5940422617043
 30
0.0
  0
SPLINE
  5
1FA
330
1C1
100
AcDbEntity
 67
     1
  8
0
  6
Continuous
 62
     7
370
    15
100
AcDbSpline
210
0.0
220
0.0
230
1.0
 70
    11
 71
     3
 72
    68
 73
    64
 74
     0
 42
0.000000001
 43
0.00000001
 40
0.0
 40
0.0
 40
0.0
 40
0.0
 40
0.0312499999999998
 40
0.0312499999999998
 40
0.0624999999999995
 40
0.0624999999999995
 40
0.0937499999999993
 40
0.0937499999999993
 40
0.1249999999999991
 40
0.1249999999999991
 40
0.1562499999999989
 40
0.1562499999999989
 40
0.1874999999999986
 40
0.1874999999999986
 40
0.2187499999999986
 40
0.2187499999999986
 40
0.2499999999999986
 40
0.2499999999999986
 40
0.2812499999999986
 40
0.2812499999999986
 40
0.3124999999999986
 40
0.3124999999999986
 40
0.3437499999999986
 40
0.3437499999999986
 40
0.3749999999999986
 40
0.3749999999999986
 40
0.4062499999999986
 40
0.4062499999999986
 40
0.4374999999999986
 40
0.4374999999999986
 40
0.4687499999999986
 40
0.4687499999999986
 40
0.4999999999999986
 40
0.4999999999999986
 40
0.5312499999999986
 40
0.5312499999999986
 40
0.5624999999999986
 40
0.5624999999999986
 40
0.5937499999999986
 40
0.5937499999999986
 40
0.6249999999999986
 40
0.6249999999999986
 40
0.6562499999999986
 40
0.6562499999999986
 40
0.6874999999999986
 40
0.6874999999999986
 40
0.7187499999999986
 40
0.7187499999999986
 40
0.7499999999999984
 40
0.7499999999999984
 40
0.7812499999999984
 40
0.7812499999999984
 40
0.8124999999999984
 40
0.8124999999999984
 40
0.8437499999999984
 40
0.8437499999999984
 40
0.8749999999999984
 40
0.8749999999999984
 40
0.9375000000000009
 40
0.9375000000000009
 40
0.9687500000000004
 40
0.9687500000000004
 40
1.0
 40
1.0
 40
1.0
 40
1.0
 10
-14.74080969790663
 20
-199.7033119053109
 30
0.0
 10
-14.69343530040901
 20
-199.5387435895163
 30
0.0
 10
-14.66364965480685
 20
-199.3714593425453
 30
0.0
 10
-14.6384321740734
 20
-199.0315963952186
 30
0.0
 10
-14.64333558254717
 20
-198.8570732019345
 30
0.0
 10
-14.68899791646761
 20
-198.5128755486855
 30
0.0
 10
-14.72918997139478
 20
-198.3438288590227
 30
0.0
 10
-14.84452761918146
 20
-198.0118887427234
 30
0.0
 10
-14.92063120103538
 20
-197.8481032795681
 30
0.0
 10
-15.10216976122036
 20
-197.5416933579606
 30
0.0
 10
-15.20801553487084
 20
-197.397175371344
 30
0.0
 10
-15.45087863726015
 20
-197.1261024198494
 30
0.0
 10
-15.58570149318237
 20
-197.0023929312042
 30
0.0
 10
-15.87530709045147
 20
-196.7833515141092
 30
0.0
 10
-16.03271608909436
 20
-196.6862365280893
 30
0.0
 10
-16.36165172105569
 20
-196.5242047681651
 30
0.0
 10
-16.5316510340882
 20
-196.4595736300926
 30
0.0
 10
-16.88243166765232
 20
-196.3622527731048
 30
0.0
 10
-17.06414708304902
 20
-196.3298659473852
 30
0.0
 10
-17.42301092838164
 20
-196.2998952543968
 30
0.0
 10
-17.60202033064346
 20
-196.3016177586512
 30
0.0
 10
-17.95917928037851
 20
-196.3388465741684
 30
0.0
 10
-18.13339100615249
 20
-196.3741037574571
 30
0.0
 10
-18.4684895518326
 20
-196.4753171260867
 30
0.0
 10
-18.63157109186416
 20
-196.5421171817
 30
0.0
 10
-18.9389840029737
 20
-196.7045109269941
 30
0.0
 10
-19.08193661427513
 20
-196.7989975432874
 30
0.0
 10
-19.34686177023177
 20
-197.0138932966099
 30
0.0
 10
-19.46975990760366
 20
-197.1357251723266
 30
0.0
 10
-19.68508514417507
 20
-197.3971943614716
 30
0.0
 10
-19.77850198038276
 20
-197.5372060422835
 30
0.0
 10
-19.93652314425806
 20
-197.8359985161849
 30
0.0
 10
-20.00082769475929
 20
-197.9953254914449
 30
0.0
 10
-20.09426696041938
 20
-198.3196633952384
 30
0.0
 10
-20.12441044295147
 20
-198.4862659072802
 30
0.0
 10
-20.15006765159495
 20
-198.8287445865486
 30
0.0
 10
-20.14506682634815
 20
-199.0020783195455
 30
0.0
 10
-20.10010008011316
 20
-199.3435712372838
 30
0.0
 10
-20.05995533169918
 20
-199.5140739153824
 30
0.0
 10
-19.94377824430526
 20
-199.8486819337974
 30
0.0
 10
-19.86932220550821
 20
-200.0088382117529
 30
0.0
 10
-19.68833525023067
 20
-200.3151490285232
 30
0.0
 10
-19.58022343047276
 20
-200.4628145724781
 30
0.0
 10
-19.3389967532515
 20
-200.7322311692059
 30
0.0
 10
-19.20591673424388
 20
-200.854824296914
 30
0.0
 10
-18.91467794347786
 20
-201.0756383821361
 30
0.0
 10
-18.7569748663151
 20
-201.1729260125639
 30
0.0
 10
-18.43053204643236
 20
-201.3342468252161
 30
0.0
 10
-18.25920277725609
 20
-201.3998595112777
 30
0.0
 10
-17.90594071449773
 20
-201.498204065497
 30
0.0
 10
-17.72789683363479
 20
-201.5300578069254
 30
0.0
 10
-17.36910487744301
 20
-201.5606723700282
 30
0.0
 10
-17.18661111393426
 20
-201.5590470971987
 30
0.0
 10
-16.83235122472447
 20
-201.5225138433573
 30
0.0
 10
-16.65948923434439
 20
-201.4880222433865
 30
0.0
 10
-16.32224431584702
 20
-201.386778812651
 30
0.0
 10
-16.15879190866669
 20
-201.3198814384866
 30
0.0
 10
-15.70099946037895
 20
-201.0789377567334
 30
0.0
 10
-15.42863327279991
 20
-200.858338184744
 30
0.0
 10
-15.10606207466236
 20
-200.4678526862523
 30
0.0
 10
-15.01107033067833
 20
-200.3260667903982
 30
0.0
 10
-14.85186987536287
 20
-200.02528867772
 30
0.0
 10
-14.78818409540426
 20
-199.8678802211054
 30
0.0
 10
-14.74080969790663
 20
-199.7033119053108
 30
0.0
  0
SPLINE
  5
1FB
330
1C1
100
AcDbEntity
 67
     1
  8
0
  6
Continuous
 62
     7
370
    15
100
AcDbSpline
210
0.0
220
0.0
230
1.0
 70
    11
 71
     3
 72
    68
 73
    64
 74
     0
 42
0.000000001
 43
0.00000001
 40
0.0
 40
0.0
 40
0.0
 40
0.0
 40
0.03125
 40
0.03125
 40
0.0624999999999999
 40
0.0624999999999999
 40
0.0937499999999999
 40
0.0937499999999999
 40
0.1249999999999998
 40
0.1249999999999998
 40
0.1562499999999998
 40
0.1562499999999998
 40
0.1874999999999998
 40
0.1874999999999998
 40
0.2187499999999997
 40
0.2187499999999997
 40
0.2499999999999997
 40
0.2499999999999997
 40
0.2812499999999996
 40
0.2812499999999996
 40
0.3124999999999996
 40
0.3124999999999996
 40
0.3437499999999996
 40
0.3437499999999996
 40
0.3749999999999995
 40
0.3749999999999995
 40
0.4062499999999994
 40
0.4062499999999994
 40
0.4374999999999994
 40
0.4374999999999994
 40
0.4687499999999994
 40
0.4687499999999994
 40
0.4999999999999993
 40
0.4999999999999993
 40
0.5312499999999993
 40
0.5312499999999993
 40
0.5624999999999992
 40
0.5624999999999992
 40
0.5937499999999992
 40
0.5937499999999992
 40
0.6249999999999991
 40
0.6249999999999991
 40
0.6562499999999991
 40
0.6562499999999991
 40
0.6874999999999991
 40
0.6874999999999991
 40
0.718749999999999
 40
0.718749999999999
 40
0.749999999999999
 40
0.749999999999999
 40
0.781249999999999
 40
0.781249999999999
 40
0.8124999999999989
 40
0.8124999999999989
 40
0.8437499999999989
 40
0.8437499999999989
 40
0.8749999999999989
 40
0.8749999999999989
 40
0.9374999999999987
 40
0.9374999999999987
 40
0.9687499999999993
 40
0.9687499999999993
 40
1.0
 40
1.0
 40
1.0
 40
1.0
 10
-19.01335713181599
 20
-194.3567860339637
 30
0.0
 10
-18.89266148337691
 20
-194.2310015173488
 30
0.0
 10
-18.78669823679297
 20
-194.0948767514008
 30
0.0
 10
-18.60356737729775
 20
-193.8024278845512
 30
0.0
 10
-18.52578615509332
 20
-193.6441890640148
 30
0.0
 10
-18.40527390616946
 20
-193.3161682770415
 30
0.0
 10
-18.36227102266415
 20
-193.1470966483369
 30
0.0
 10
-18.3110204187297
 20
-192.7987654726695
 30
0.0
 10
-18.30324301329708
 20
-192.6184362842726
 30
0.0
 10
-18.32430313910298
 20
-192.2636776657368
 30
0.0
 10
-18.35263297312014
 20
-192.0873037930914
 30
0.0
 10
-18.4461203755476
 20
-191.7366375163931
 30
0.0
 10
-18.51043369639621
 20
-191.5663665249274
 30
0.0
 10
-18.6706225233801
 20
-191.2417257244223
 30
0.0
 10
-18.76805917167187
 20
-191.0847523801987
 30
0.0
 10
-18.9903602510159
 20
-190.7938012725534
 30
0.0
 10
-19.11422559638536
 20
-190.6603776707787
 30
0.0
 10
-19.38679719144023
 20
-190.4170762449129
 30
0.0
 10
-19.53629456271381
 20
-190.3072065609697
 30
0.0
 10
-19.84750112595759
 20
-190.1203679861741
 30
0.0
 10
-20.01062177291401
 20
-190.0419392297011
 30
0.0
 10
-20.35210105225561
 20
-189.9154752627847
 30
0.0
 10
-20.52641416912011
 20
-189.8690727005851
 30
0.0
 10
-20.87789498201926
 20
-189.8093672932206
 30
0.0
 10
-21.05733190291365
 20
-189.795902455815
 30
0.0
 10
-21.41260636621354
 20
-189.8029972189021
 30
0.0
 10
-21.5868341586308
 20
-189.823178697667
 30
0.0
 10
-21.92861928134276
 20
-189.8960778148493
 30
0.0
 10
-22.0976842561044
 20
-189.9496511914887
 30
0.0
 10
-22.41658137362223
 20
-190.0863782995687
 30
0.0
 10
-22.56751718937221
 20
-190.1694307871276
 30
0.0
 10
-22.85213819980509
 20
-190.365312434825
 30
0.0
 10
-22.98579598307694
 20
-190.4787589819094
 30
0.0
 10
-23.22379190384422
 20
-190.7265650262965
 30
0.0
 10
-23.32981036141966
 20
-190.861900924958
 30
0.0
 10
-23.51469718301059
 20
-191.1565011059062
 30
0.0
 10
-23.59183623949754
 20
-191.3136120310856
 30
0.0
 10
-23.71184060541004
 20
-191.6389699683669
 30
0.0
 10
-23.75564741552284
 20
-191.8095031348579
 30
0.0
 10
-23.80742625985253
 20
-192.1603505415237
 30
0.0
 10
-23.81504819714205
 20
-192.3367215803124
 30
0.0
 10
-23.79448046036718
 20
-192.6913251285195
 30
0.0
 10
-23.76555564583833
 20
-192.8715492032613
 30
0.0
 10
-23.67291106982186
 20
-193.2196263147917
 30
0.0
 10
-23.60956776309214
 20
-193.3884499838374
 30
0.0
 10
-23.44860698172259
 20
-193.7155953299377
 30
0.0
 10
-23.35119194622868
 20
-193.8725044295616
 30
0.0
 10
-23.13064755532417
 20
-194.1619191242421
 30
0.0
 10
-23.00576880683672
 20
-194.2970324641517
 30
0.0
 10
-22.73170580641641
 20
-194.5420554596394
 30
0.0
 10
-22.58522776475679
 20
-194.6498762652175
 30
0.0
 10
-22.2741683234824
 20
-194.8373690207936
 30
0.0
 10
-22.10790201852562
 20
-194.9174282168989
 30
0.0
 10
-21.76959018500754
 20
-195.0431428153994
 30
0.0
 10
-21.59660167892569
 20
-195.089713429284
 30
0.0
 10
-21.24297780044629
 20
-195.150378094433
 30
0.0
 10
-21.063287423385
 20
-195.1639111441517
 30
0.0
 10
-20.53446127228991
 20
-195.1541410290754
 30
0.0
 10
-20.18315637552303
 20
-195.0795276627365
 30
0.0
 10
-19.70599027478947
 20
-194.8757239791615
 30
0.0
 10
-19.55277403292933
 20
-194.7917580153464
 30
0.0
 10
-19.26619764260788
 20
-194.5945911705116
 30
0.0
 10
-19.13405278025506
 20
-194.4825705505786
 30
0.0
 10
-19.01335713181599
 20
-194.3567860339637
 30
0.0
  0
SPLINE
  5
1FC
330
1C1
100
AcDbEntity
 67
     1
  8
0
  6
Continuous
 62
     7
370
    15
100
AcDbSpline
210
0.0
220
0.0
230
1.0
 70
    11
 71
     3
 72
    66
 73
    62
 74
     0
 42
0.000000001
 43
0.00000001
 40
0.0
 40
0.0
 40
0.0
 40
0.0
 40
0.0312500000000021
 40
0.0312500000000021
 40
0.0625000000000042
 40
0.0625000000000042
 40
0.0937500000000064
 40
0.0937500000000064
 40
0.1250000000000085
 40
0.1250000000000085
 40
0.187500000000008
 40
0.187500000000008
 40
0.2187500000000077
 40
0.2187500000000077
 40
0.2500000000000075
 40
0.2500000000000075
 40
0.2812500000000072
 40
0.2812500000000072
 40
0.3125000000000069
 40
0.3125000000000069
 40
0.3437500000000067
 40
0.3437500000000067
 40
0.3750000000000064
 40
0.3750000000000064
 40
0.4062500000000062
 40
0.4062500000000062
 40
0.4375000000000059
 40
0.4375000000000059
 40
0.4687500000000056
 40
0.4687500000000056
 40
0.5000000000000053
 40
0.5000000000000053
 40
0.5312500000000051
 40
0.5312500000000051
 40
0.5625000000000049
 40
0.5625000000000049
 40
0.5937500000000047
 40
0.5937500000000047
 40
0.6250000000000044
 40
0.6250000000000044
 40
0.6562500000000042
 40
0.6562500000000042
 40
0.687500000000004
 40
0.687500000000004
 40
0.7187500000000038
 40
0.7187500000000038
 40
0.7500000000000036
 40
0.7500000000000036
 40
0.7812500000000034
 40
0.7812500000000034
 40
0.8125000000000032
 40
0.8125000000000032
 40
0.843750000000003
 40
0.843750000000003
 40
0.8750000000000028
 40
0.8750000000000028
 40
0.9062500000000026
 40
0.9062500000000026
 40
0.9375000000000023
 40
0.9375000000000023
 40
1.0
 40
1.0
 40
1.0
 40
1.0
 10
-18.97437783429091
 20
-187.0705656653048
 30
0.0
 10
-18.84741999473668
 20
-186.9440911672165
 30
0.0
 10
-18.73539159331886
 20
-186.8063747602689
 30
0.0
 10
-18.54038238957534
 20
-186.509075009844
 30
0.0
 10
-18.45674249034928
 20
-186.3474266698638
 30
0.0
 10
-18.32557680042675
 20
-186.0128445216662
 30
0.0
 10
-18.27745442301397
 20
-185.8399770082097
 30
0.0
 10
-18.21621719703383
 20
-185.4830613618324
 30
0.0
 10
-18.20369209040598
 20
-185.2992850126337
 30
0.0
 10
-18.22081703695844
 20
-184.7560095889039
 30
0.0
 10
-18.30609265324942
 20
-184.3912163372634
 30
0.0
 10
-18.52969607219946
 20
-183.8923139352961
 30
0.0
 10
-18.62150999392967
 20
-183.7308224880974
 30
0.0
 10
-18.83103012378624
 20
-183.4320004136851
 30
0.0
 10
-18.94870820258298
 20
-183.2937882229463
 30
0.0
 10
-19.20962043823192
 20
-183.0395215522005
 30
0.0
 10
-19.35285507870743
 20
-182.9240853161201
 30
0.0
 10
-19.65317456623885
 20
-182.7248114026505
 30
0.0
 10
-19.81159511236129
 20
-182.6395580238077
 30
0.0
 10
-20.14542885573728
 20
-182.4986421057809
 30
0.0
 10
-20.31657684016239
 20
-182.4448805960051
 30
0.0
 10
-20.66420468470819
 20
-182.3703921605849
 30
0.0
 10
-20.84259593505409
 20
-182.3494651064167
 30
0.0
 10
-21.19929242843904
 20
-182.3424877039739
 30
0.0
 10
-21.37518238823294
 20
-182.3561838809279
 30
0.0
 10
-21.72211488754764
 20
-182.4174987617085
 30
0.0
 10
-21.89499163988311
 20
-182.4659861754307
 30
0.0
 10
-22.223511060695
 20
-182.5951191014449
 30
0.0
 10
-22.37968734768789
 20
-182.675387646936
 30
0.0
 10
-22.67562127257251
 20
-182.8678356161017
 30
0.0
 10
-22.81575128361285
 20
-182.9809798423409
 30
0.0
 10
-23.06624630813985
 20
-183.2301691054555
 30
0.0
 10
-23.17841855275518
 20
-183.3671427165291
 30
0.0
 10
-23.37549403477705
 20
-183.6669144994173
 30
0.0
 10
-23.45828958600993
 20
-183.8270517050061
 30
0.0
 10
-23.58920079166921
 20
-184.1597458511914
 30
0.0
 10
-23.63834660257445
 20
-184.3352389267274
 30
0.0
 10
-23.69986101463774
 20
-184.6931373232065
 30
0.0
 10
-23.71228306544233
 20
-184.8734307939546
 30
0.0
 10
-23.70129108455897
 20
-185.236643552276
 30
0.0
 10
-23.67724065620187
 20
-185.420670861225
 30
0.0
 10
-23.59502027592811
 20
-185.7755125067525
 30
0.0
 10
-23.5370097917284
 20
-185.9482622996751
 30
0.0
 10
-23.38682065727757
 20
-186.2843171413598
 30
0.0
 10
-23.29612751476035
 20
-186.4438618660059
 30
0.0
 10
-23.08783878587524
 20
-186.7419365194787
 30
0.0
 10
-22.96855949262128
 20
-186.8825126235297
 30
0.0
 10
-22.70751443378872
 20
-187.1373359286114
 30
0.0
 10
-22.56698873334271
 20
-187.2509023582613
 30
0.0
 10
-22.26645366038257
 20
-187.4510726553289
 30
0.0
 10
-22.10497232756994
 20
-187.5380264759054
 30
0.0
 10
-21.77452710238672
 20
-187.677865598315
 30
0.0
 10
-21.60447204139776
 20
-187.7317810374563
 30
0.0
 10
-21.25458255987847
 20
-187.8072238512799
 30
0.0
 10
-21.07525488412445
 20
-187.8281943572957
 30
0.0
 10
-20.72158920632074
 20
-187.8354285002719
 30
0.0
 10
-20.54540404997304
 20
-187.8221766921116
 30
0.0
 10
-20.19439634781245
 20
-187.7603196325423
 30
0.0
 10
-20.02359903345603
 20
-187.7122399814131
 30
0.0
 10
-19.53278740130665
 20
-187.5197662506978
 30
0.0
 10
-19.22829351339933
 20
-187.3235146614812
 30
0.0
 10
-18.9743778342909
 20
-187.0705656653047
 30
0.0
  0
SPLINE
  5
1FD
330
1C1
100
AcDbEntity
 67
     1
  8
0
  6
Continuous
 62
     7
370
    15
100
AcDbSpline
210
0.0
220
0.0
230
1.0
 70
    11
 71
     3
 72
    66
 73
    62
 74
     0
 42
0.000000001
 43
0.00000001
 40
0.0
 40
0.0
 40
0.0
 40
0.0
 40
0.0312499999999977
 40
0.0312499999999977
 40
0.0624999999999954
 40
0.0624999999999954
 40
0.0937499999999931
 40
0.0937499999999931
 40
0.1249999999999908
 40
0.1249999999999908
 40
0.187499999999991
 40
0.187499999999991
 40
0.2187499999999911
 40
0.2187499999999911
 40
0.2499999999999912
 40
0.2499999999999912
 40
0.2812499999999913
 40
0.2812499999999913
 40
0.3124999999999916
 40
0.3124999999999916
 40
0.343749999999992
 40
0.343749999999992
 40
0.3749999999999923
 40
0.3749999999999923
 40
0.4062499999999926
 40
0.4062499999999926
 40
0.4374999999999929
 40
0.4374999999999929
 40
0.4687499999999932
 40
0.4687499999999932
 40
0.4999999999999936
 40
0.4999999999999936
 40
0.5312499999999939
 40
0.5312499999999939
 40
0.5624999999999943
 40
0.5624999999999943
 40
0.5937499999999947
 40
0.5937499999999947
 40
0.624999999999995
 40
0.624999999999995
 40
0.6562499999999954
 40
0.6562499999999954
 40
0.6874999999999958
 40
0.6874999999999958
 40
0.7187499999999962
 40
0.7187499999999962
 40
0.7499999999999966
 40
0.7499999999999966
 40
0.7812499999999969
 40
0.7812499999999969
 40
0.8124999999999973
 40
0.8124999999999973
 40
0.8437499999999977
 40
0.8437499999999977
 40
0.874999999999998
 40
0.874999999999998
 40
0.9062499999999984
 40
0.9062499999999984
 40
0.9374999999999988
 40
0.9374999999999988
 40
1.0
 40
1.0
 40
1.0
 40
1.0
 10
-15.17428300391116
 20
-180.7737359324258
 30
0.0
 10
-15.04367976687844
 20
-180.6451314140366
 30
0.0
 10
-14.92839550664367
 20
-180.5051834797595
 30
0.0
 10
-14.72708727569937
 20
-180.2036186756862
 30
0.0
 10
-14.64038832320511
 20
-180.0399470518238
 30
0.0
 10
-14.50291579407365
 20
-179.7017586974763
 30
0.0
 10
-14.4515635518046
 20
-179.5273201056966
 30
0.0
 10
-14.38316847001656
 20
-179.1678938200429
 30
0.0
 10
-14.36667671348017
 20
-178.9831283989609
 30
0.0
 10
-14.37066630355695
 20
-178.4367547636017
 30
0.0
 10
-14.44511346971086
 20
-178.0698309491804
 30
0.0
 10
-14.65103703385262
 20
-177.5652573978611
 30
0.0
 10
-14.73650103345218
 20
-177.4015779558682
 30
0.0
 10
-14.93473020704822
 20
-177.0958502945288
 30
0.0
 10
-15.04686264411286
 20
-176.9539721720822
 30
0.0
 10
-15.29682076835353
 20
-176.6918991689959
 30
0.0
 10
-15.43593607605213
 20
-176.5711255789255
 30
0.0
 10
-15.72953013734073
 20
-176.3613472036281
 30
0.0
 10
-15.88495679696194
 20
-176.2710045281354
 30
0.0
 10
-16.21346581855638
 20
-176.1200756237509
 30
0.0
 10
-16.38610060527454
 20
-176.0601963142911
 30
0.0
 10
-16.73463082324114
 20
-175.9761074276396
 30
0.0
 10
-16.91228031453939
 20
-175.9509933228341
 30
0.0
 10
-17.27473484573028
 20
-175.9365337967182
 30
0.0
 10
-17.45492619897681
 20
-175.9475338838809
 30
0.0
 10
-17.80861595842505
 20
-176.0049868914508
 30
0.0
 10
-17.98450851315769
 20
-176.0520544921843
 30
0.0
 10
-18.32297737089866
 20
-176.1814873036535
 30
0.0
 10
-18.48348006651975
 20
-176.262645499382
 30
0.0
 10
-18.78719531595331
 20
-176.4575247559642
 30
0.0
 10
-18.93145986210308
 20
-176.5727014207338
 30
0.0
 10
-19.1896684660871
 20
-176.8266907171387
 30
0.0
 10
-19.30517051023111
 20
-176.966113263605
 30
0.0
 10
-19.50850933029121
 20
-177.2702340008762
 30
0.0
 10
-19.59451350657071
 20
-177.432801731704
 30
0.0
 10
-19.73169782365554
 20
-177.7693876640563
 30
0.0
 10
-19.78404721890573
 20
-177.9464190869253
 30
0.0
 10
-19.85268513140009
 20
-178.3068149013323
 30
0.0
 10
-19.86899138602436
 20
-178.4882136247151
 30
0.0
 10
-19.8667646314039
 20
-178.8533334631915
 30
0.0
 10
-19.84766634722389
 20
-179.0382494588449
 30
0.0
 10
-19.77599069586696
 20
-179.3955916968737
 30
0.0
 10
-19.72362032017616
 20
-179.5697669845292
 30
0.0
 10
-19.58561199627783
 20
-179.9090720966253
 30
0.0
 10
-19.50057383463517
 20
-180.071930364217
 30
0.0
 10
-19.30394796873383
 20
-180.3760972345711
 30
0.0
 10
-19.19132548391966
 20
-180.5193072952763
 30
0.0
 10
-18.9392845239592
 20
-180.7838990633768
 30
0.0
 10
-18.80290578156837
 20
-180.9022872121686
 30
0.0
 10
-18.51006127020171
 20
-181.1120916437371
 30
0.0
 10
-18.35179910343463
 20
-181.2042546341014
 30
0.0
 10
-18.02315311443354
 20
-181.3552389241671
 30
0.0
 10
-17.85365081085273
 20
-181.4141426972994
 30
0.0
 10
-17.50428009442084
 20
-181.4987358169429
 30
0.0
 10
-17.32265800222604
 20
-181.5242414310653
 30
0.0
 10
-16.96349865832515
 20
-181.5384748908801
 30
0.0
 10
-16.78460950403147
 20
-181.5278597043871
 30
0.0
 10
-16.42825792211672
 20
-181.4701223963393
 30
0.0
 10
-16.2515538534597
 20
-181.4225974555385
 30
0.0
 10
-15.74807459564899
 20
-181.2302385341819
 30
0.0
 10
-15.43548947797662
 20
-181.0309449692042
 30
0.0
 10
-15.17428300391115
 20
-180.7737359324258
 30
0.0
  0
SPLINE
  5
1FE
330
1C1
100
AcDbEntity
 67
     1
  8
0
  6
Continuous
 62
     7
370
    15
100
AcDbSpline
210
0.0
220
0.0
230
1.0
 70
    11
 71
     3
 72
    66
 73
    62
 74
     0
 42
0.000000001
 43
0.00000001
 40
0.0
 40
0.0
 40
0.0
 40
0.0
 40
0.0312499999999988
 40
0.0312499999999988
 40
0.0624999999999976
 40
0.0624999999999976
 40
0.0937499999999964
 40
0.0937499999999964
 40
0.1249999999999952
 40
0.1249999999999952
 40
0.156249999999994
 40
0.156249999999994
 40
0.1874999999999928
 40
0.1874999999999928
 40
0.2499999999999905
 40
0.2499999999999905
 40
0.281249999999991
 40
0.281249999999991
 40
0.3124999999999915
 40
0.3124999999999915
 40
0.3437499999999919
 40
0.3437499999999919
 40
0.3749999999999923
 40
0.3749999999999923
 40
0.4062499999999928
 40
0.4062499999999928
 40
0.4374999999999933
 40
0.4374999999999933
 40
0.4687499999999938
 40
0.4687499999999938
 40
0.4999999999999942
 40
0.4999999999999942
 40
0.5312499999999947
 40
0.5312499999999947
 40
0.5624999999999951
 40
0.5624999999999951
 40
0.5937499999999957
 40
0.5937499999999957
 40
0.6249999999999961
 40
0.6249999999999961
 40
0.6562499999999966
 40
0.6562499999999966
 40
0.687499999999997
 40
0.687499999999997
 40
0.7187499999999974
 40
0.7187499999999974
 40
0.7499999999999979
 40
0.7499999999999979
 40
0.7812499999999984
 40
0.7812499999999984
 40
0.8124999999999989
 40
0.8124999999999989
 40
0.8437499999999993
 40
0.8437499999999993
 40
0.8749999999999998
 40
0.8749999999999998
 40
0.9062500000000002
 40
0.9062500000000002
 40
0.9375000000000008
 40
0.9375000000000008
 40
1.0
 40
1.0
 40
1.0
 40
1.0
 10
-8.665881792333531
 20
-177.1891720801906
 30
0.0
 10
-8.533559702840865
 20
-177.0604749633014
 30
0.0
 10
-8.41640987775316
 20
-176.9207693977028
 30
0.0
 10
-8.210694333543069
 20
-176.6206192282501
 30
0.0
 10
-8.12142714701389
 20
-176.4582908299521
 30
0.0
 10
-7.977146956223386
 20
-176.1219196545241
 30
0.0
 10
-7.921949777383613
 20
-175.94864405279
 30
0.0
 10
-7.84463083135359
 20
-175.5921575196256
 30
0.0
 10
-7.822830975650983
 20
-175.4079081019266
 30
0.0
 10
-7.814328344509028
 20
-175.0442046873042
 30
0.0
 10
-7.827056351719248
 20
-174.8630006427998
 30
0.0
 10
-7.886957183776548
 20
-174.5019071485729
 30
0.0
 10
-7.934097000354847
 20
-174.3241655566995
 30
0.0
 10
-8.121854791912051
 20
-173.8138009621752
 30
0.0
 10
-8.313835544322513
 20
-173.4937402571468
 30
0.0
 10
-8.676825704933407
 20
-173.089493715775
 30
0.0
 10
-8.812379690798743
 20
-172.9647936130339
 30
0.0
 10
-9.104087090568054
 20
-172.745229327835
 30
0.0
 10
-9.258783274703292
 20
-172.6509425245127
 30
0.0
 10
-9.585867158278468
 20
-172.4933656716555
 30
0.0
 10
-9.76018161754896
 20
-172.4298395667434
 30
0.0
 10
-10.11283107443828
 20
-172.3405098563908
 30
0.0
 10
-10.29225860347628
 20
-172.313775012344
 30
0.0
 10
-10.65748260810904
 20
-172.2970997058334
 30
0.0
 10
-10.84220463287594
 20
-172.3077142196234
 30
0.0
 10
-11.20106394766008
 20
-172.3655177732068
 30
0.0
 10
-11.37813790042939
 20
-172.4128530577183
 30
0.0
 10
-11.72200916688851
 20
-172.5442669809805
 30
0.0
 10
-11.88457894787304
 20
-172.6265294192444
 30
0.0
 10
-12.19170003607311
 20
-172.8229039739921
 30
0.0
 10
-12.3374801449238
 20
-172.9385345371533
 30
0.0
 10
-12.59939607388173
 20
-173.1931147148565
 30
0.0
 10
-12.71673957810319
 20
-173.3323926424245
 30
0.0
 10
-12.92431127034158
 20
-173.6348245708676
 30
0.0
 10
-13.01324499208018
 20
-173.7967717442466
 30
0.0
 10
-13.15698149507839
 20
-174.131089099309
 30
0.0
 10
-13.21301478998399
 20
-174.3058753262855
 30
0.0
 10
-13.29101647384776
 20
-174.6648976775379
 30
0.0
 10
-13.31241188935874
 20
-174.8455469692791
 30
0.0
 10
-13.32139266682002
 20
-175.2090324341057
 30
0.0
 10
-13.30852671095492
 20
-175.3937655858542
 30
0.0
 10
-13.24902185746161
 20
-175.7534666719608
 30
0.0
 10
-13.20281611425247
 20
-175.9288307998932
 30
0.0
 10
-13.07756915853597
 20
-176.2706054933196
 30
0.0
 10
-12.99772048006804
 20
-176.4376755761644
 30
0.0
 10
-12.81089723168757
 20
-176.7488603321355
 30
0.0
 10
-12.70345423233584
 20
-176.8947978210545
 30
0.0
 10
-12.45958969750513
 20
-177.1667305491436
 30
0.0
 10
-12.3239272490554
 20
-177.2912770832594
 30
0.0
 10
-12.03455238520874
 20
-177.5092843890839
 30
0.0
 10
-11.87966138724017
 20
-177.6041530418125
 30
0.0
 10
-11.54814874138664
 20
-177.7637823022339
 30
0.0
 10
-11.37728577720703
 20
-177.8257628037447
 30
0.0
 10
-11.02564667988131
 20
-177.9150209895959
 30
0.0
 10
-10.84272772155276
 20
-177.9423201932273
 30
0.0
 10
-10.47748561724161
 20
-177.9588108619332
 30
0.0
 10
-10.29612824347091
 20
-177.9484712994214
 30
0.0
 10
-9.935935224065807
 20
-177.8907141097777
 30
0.0
 10
-9.756322742837975
 20
-177.8425288447266
 30
0.0
 10
-9.245864950390386
 20
-177.6476758336932
 30
0.0
 10
-8.930525971318872
 20
-177.4465663139693
 30
0.0
 10
-8.665881792333531
 20
-177.1891720801907
 30
0.0
  0
SPLINE
  5
1FF
330
1C1
100
AcDbEntity
 67
     1
  8
0
  6
Continuous
 62
     7
370
    15
100
AcDbSpline
210
0.0
220
0.0
230
1.0
 70
    11
 71
     3
 72
    66
 73
    62
 74
     0
 42
0.000000001
 43
0.00000001
 40
0.0
 40
0.0
 40
0.0
 40
0.0
 40
0.031250000000001
 40
0.031250000000001
 40
0.062500000000002
 40
0.062500000000002
 40
0.093750000000003
 40
0.093750000000003
 40
0.125000000000004
 40
0.125000000000004
 40
0.156250000000005
 40
0.156250000000005
 40
0.1875000000000059
 40
0.1875000000000059
 40
0.2187500000000069
 40
0.2187500000000069
 40
0.2500000000000079
 40
0.2500000000000079
 40
0.2812500000000089
 40
0.2812500000000089
 40
0.3125000000000099
 40
0.3125000000000099
 40
0.3437500000000109
 40
0.3437500000000109
 40
0.3750000000000119
 40
0.3750000000000119
 40
0.4062500000000129
 40
0.4062500000000129
 40
0.4375000000000139
 40
0.4375000000000139
 40
0.4687500000000149
 40
0.4687500000000149
 40
0.5000000000000158
 40
0.5000000000000158
 40
0.5312500000000169
 40
0.5312500000000169
 40
0.5625000000000179
 40
0.5625000000000179
 40
0.6250000000000199
 40
0.6250000000000199
 40
0.6562500000000182
 40
0.6562500000000182
 40
0.6875000000000165
 40
0.6875000000000165
 40
0.7187500000000149
 40
0.7187500000000149
 40
0.7500000000000131
 40
0.7500000000000131
 40
0.7812500000000114
 40
0.7812500000000114
 40
0.8125000000000099
 40
0.8125000000000099
 40
0.8437500000000083
 40
0.8437500000000083
 40
0.8750000000000067
 40
0.8750000000000067
 40
0.906250000000005
 40
0.906250000000005
 40
0.9375000000000033
 40
0.9375000000000033
 40
1.0
 40
1.0
 40
1.0
 40
1.0
 10
1.274200763735007
 20
-187.2205502234881
 30
0.0
 10
1.38956030137263
 20
-187.1014433842209
 30
0.0
 10
1.491587478093911
 20
-186.9732379819995
 30
0.0
 10
1.669984146566017
 20
-186.6993174420691
 30
0.0
 10
1.746963671333725
 20
-186.5519050910235
 30
0.0
 10
1.86987984255858
 20
-186.2472702549876
 30
0.0
 10
1.915924273022781
 20
-186.090888928297
 30
0.0
 10
1.97737163684006
 20
-185.7700479693008
 30
0.0
 10
1.992461890226298
 20
-185.6043942428306
 30
0.0
 10
1.989863727461481
 20
-185.2788882804763
 30
0.0
 10
1.972698873327593
 20
-185.1174508504581
 30
0.0
 10
1.905834236669641
 20
-184.7972742956102
 30
0.0
 10
1.856258495573625
 20
-184.6406934555484
 30
0.0
 10
1.728481643214881
 20
-184.3434689231245
 30
0.0
 10
1.649385363509512
 20
-184.2004988338541
 30
0.0
 10
1.463112371733489
 20
-183.93223280664
 30
0.0
 10
1.35793773918366
 20
-183.8094248204381
 30
0.0
 10
1.124206689564807
 20
-183.5858050782209
 30
0.0
 10
0.9940607134285833
 20
-183.4842045187697
 30
0.0
 10
0.7196046072801311
 20
-183.3112472773614
 30
0.0
 10
0.5748955920806776
 20
-183.2390180488357
 30
0.0
 10
0.2704609231997347
 20
-183.1231606887928
 30
0.0
 10
0.1111457163002544
 20
-183.0801478734608
 30
0.0
 10
-0.2088985696570055
 20
-183.0266639347512
 30
0.0
 10
-0.371389284647773
 20
-183.015484246938
 30
0.0
 10
-0.7008625788853303
 20
-183.0254203280062
 30
0.0
 10
-0.8626260504688062
 20
-183.0463577467189
 30
0.0
 10
-1.180460898588287
 20
-183.118807917125
 30
0.0
 10
-1.338151480596139
 20
-183.1711262028547
 30
0.0
 10
-1.638453054760376
 20
-183.304261646141
 30
0.0
 10
-1.780747091612801
 20
-183.384478388333
 30
0.0
 10
-2.049765511529463
 20
-183.5719600369164
 30
0.0
 10
-2.177039781959152
 20
-183.6802285608804
 30
0.0
 10
-2.405002141011383
 20
-183.9153923584746
 30
0.0
 10
-2.507165190516446
 20
-184.0430760292609
 30
0.0
 10
-2.687281080011041
 20
-184.3191375807969
 30
0.0
 10
-2.76389310397528
 20
-184.4660431962955
 30
0.0
 10
-2.947452531089011
 20
-184.9197359074361
 30
0.0
 10
-3.010933226295783
 20
-185.249333860253
 30
0.0
 10
-3.007583007387871
 20
-185.7370415615192
 30
0.0
 10
-2.990112342360035
 20
-185.901806222995
 30
0.0
 10
-2.923550423486337
 20
-186.220663442335
 30
0.0
 10
-2.874900832647624
 20
-186.3750787771267
 30
0.0
 10
-2.746805242363719
 20
-186.6738640046616
 30
0.0
 10
-2.666804990037689
 20
-186.8182533932449
 30
0.0
 10
-2.482523052675439
 20
-187.084026740985
 30
0.0
 10
-2.377616895755529
 20
-187.2071968242449
 30
0.0
 10
-2.141409614814183
 20
-187.4334452711232
 30
0.0
 10
-2.013154815755027
 20
-187.5334465516717
 30
0.0
 10
-1.739816306696975
 20
-187.7061274467269
 30
0.0
 10
-1.592688903501595
 20
-187.7797606217403
 30
0.0
 10
-1.287989660419745
 20
-187.8957790667865
 30
0.0
 10
-1.131568135605432
 20
-187.9381499960805
 30
0.0
 10
-0.8107198974077884
 20
-187.9921442716384
 30
0.0
 10
-0.6451195840774483
 20
-188.003436792083
 30
0.0
 10
-0.3195039424173512
 20
-187.9937701222267
 30
0.0
 10
-0.1579419393886684
 20
-187.9732828291988
 30
0.0
 10
0.1626466606871064
 20
-187.9004564131155
 30
0.0
 10
0.3195834042910208
 20
-187.8482836811044
 30
0.0
 10
0.7674136430111528
 20
-187.6501979793215
 30
0.0
 10
1.043481688459781
 20
-187.4587639020227
 30
0.0
 10
1.274200763735007
 20
-187.2205502234881
 30
0.0
  0
SPLINE
  5
200
330
1C1
100
AcDbEntity
 67
     1
  8
0
  6
Continuous
 62
     7
370
    15
100
AcDbSpline
210
0.0
220
0.0
230
1.0
 70
    11
 71
     3
 72
    66
 73
    62
 74
     0
 42
0.000000001
 43
0.00000001
 40
0.0
 40
0.0
 40
0.0
 40
0.0
 40
0.03125
 40
0.03125
 40
0.0625
 40
0.0625
 40
0.09375
 40
0.09375
 40
0.125
 40
0.125
 40
0.1875
 40
0.1875
 40
0.21875
 40
0.21875
 40
0.25
 40
0.25
 40
0.28125
 40
0.28125
 40
0.3125
 40
0.3125
 40
0.34375
 40
0.34375
 40
0.375
 40
0.375
 40
0.40625
 40
0.40625
 40
0.4375
 40
0.4375
 40
0.46875
 40
0.46875
 40
0.5
 40
0.5
 40
0.53125
 40
0.53125
 40
0.5625
 40
0.5625
 40
0.59375
 40
0.59375
 40
0.625
 40
0.625
 40
0.65625
 40
0.65625
 40
0.6875
 40
0.6875
 40
0.71875
 40
0.71875
 40
0.75
 40
0.75
 40
0.78125
 40
0.78125
 40
0.8125
 40
0.8125
 40
0.84375
 40
0.84375
 40
0.875
 40
0.875
 40
0.90625
 40
0.90625
 40
0.9375
 40
0.9375
 40
1.0
 40
1.0
 40
1.0
 40
1.0
 10
1.57113244448184
 20
-194.2061688609896
 30
0.0
 10
1.663150922749558
 20
-194.0700494028607
 30
0.0
 10
1.740026787579039
 20
-193.9276565502155
 30
0.0
 10
1.864739046898215
 20
-193.6308400731811
 30
0.0
 10
1.91284651494977
 20
-193.4746025590014
 30
0.0
 10
1.976116025940109
 20
-193.1593600485075
 30
0.0
 10
1.99164954939242
 20
-193.0007997744413
 30
0.0
 10
1.990817892285928
 20
-192.681817771273
 30
0.0
 10
1.973940055970671
 20
-192.520778847701
 30
0.0
 10
1.876891019834213
 20
-192.0556148267422
 30
0.0
 10
1.747509239396284
 20
-191.7571564220432
 30
0.0
 10
1.47572356188036
 20
-191.3685396192078
 30
0.0
 10
1.371075442712508
 20
-191.2468117300351
 30
0.0
 10
1.139057374636741
 20
-191.0263604253015
 30
0.0
 10
1.013358219454107
 20
-190.9288056660455
 30
0.0
 10
0.7430130881956953
 20
-190.7584704501248
 30
0.0
 10
0.5967710309611706
 20
-190.6852864886902
 30
0.0
 10
0.2960405400301335
 20
-190.5699924816429
 30
0.0
 10
0.1408130425298885
 20
-190.5270576694489
 30
0.0
 10
-0.1794729811149132
 20
-190.4709363857161
 30
0.0
 10
-0.3441466630270682
 20
-190.4582482770488
 30
0.0
 10
-0.6692222315478639
 20
-190.4642112409627
 30
0.0
 10
-0.8313942486797704
 20
-190.4824680812621
 30
0.0
 10
-1.154973500856202
 20
-190.5508939859814
 30
0.0
 10
-1.311553546256634
 20
-190.6001037295703
 30
0.0
 10
-1.612896561170835
 20
-190.7269296674241
 30
0.0
 10
-1.759396600962226
 20
-190.8056320583993
 30
0.0
 10
-2.032941570461103
 20
-190.9885624593544
 30
0.0
 10
-2.159245393074372
 20
-191.0918298922617
 30
0.0
 10
-2.391132471848853
 20
-191.3217253222867
 30
0.0
 10
-2.49720086755657
 20
-191.4495803441569
 30
0.0
 10
-2.67908340710007
 20
-191.7184172103134
 30
0.0
 10
-2.756199224239186
 20
-191.8603700672716
 30
0.0
 10
-2.882204423456965
 20
-192.1596581982068
 30
0.0
 10
-2.929969805225884
 20
-192.3151220400304
 30
0.0
 10
-2.99315780900292
 20
-192.628495924446
 30
0.0
 10
-3.009148133324046
 20
-192.7888453729961
 30
0.0
 10
-3.008353805499201
 20
-193.1098911590511
 30
0.0
 10
-2.991814798476581
 20
-193.2676923598151
 30
0.0
 10
-2.927426739054635
 20
-193.5780140254433
 30
0.0
 10
-2.878743395487667
 20
-193.7320027096148
 30
0.0
 10
-2.752978075840988
 20
-194.0230046390795
 30
0.0
 10
-2.676038326671095
 20
-194.1609883110279
 30
0.0
 10
-2.493942655319505
 20
-194.4218648416974
 30
0.0
 10
-2.388724836427004
 20
-194.54410052667
 30
0.0
 10
-2.158791538875499
 20
-194.7628864517077
 30
0.0
 10
-2.033137421543247
 20
-194.8609188506442
 30
0.0
 10
-1.759625089936809
 20
-195.0333803854959
 30
0.0
 10
-1.615986257958758
 20
-195.1051139316393
 30
0.0
 10
-1.316292427106383
 20
-195.2203284762406
 30
0.0
 10
-1.158405580279158
 20
-195.2641315935005
 30
0.0
 10
-0.8378275842060717
 20
-195.3202708416517
 30
0.0
 10
-0.6762313924180123
 20
-195.3328029348525
 30
0.0
 10
-0.3504508769554644
 20
-195.3271114687228
 30
0.0
 10
-0.1849474898903795
 20
-195.3083489889016
 30
0.0
 10
0.135057436144323
 20
-195.2407208107215
 30
0.0
 10
0.2910424582382304
 20
-195.1920693876804
 30
0.0
 10
0.5948052001077823
 20
-195.0644539567183
 30
0.0
 10
0.7411261217590368
 20
-194.985707503348
 30
0.0
 10
1.148662483275688
 20
-194.7135879655282
 30
0.0
 10
1.387095487946405
 20
-194.4784077772475
 30
0.0
 10
1.57113244448184
 20
-194.2061688609896
 30
0.0
  0
SPLINE
  5
201
330
1C1
100
AcDbEntity
 67
     1
  8
0
  6
Continuous
 62
     7
370
    15
100
AcDbSpline
210
0.0
220
0.0
230
1.0
 70
    11
 71
     3
 72
    62
 73
    58
 74
     0
 42
0.000000001
 43
0.00000001
 40
0.0
 40
0.0
 40
0.0
 40
0.0
 40
0.0312499999999995
 40
0.0312499999999995
 40
0.062499999999999
 40
0.062499999999999
 40
0.0937499999999985
 40
0.0937499999999985
 40
0.1249999999999981
 40
0.1249999999999981
 40
0.1562499999999976
 40
0.1562499999999976
 40
0.1874999999999971
 40
0.1874999999999971
 40
0.2499999999999963
 40
0.2499999999999963
 40
0.2812499999999981
 40
0.2812499999999981
 40
0.3124999999999999
 40
0.3124999999999999
 40
0.3437500000000017
 40
0.3437500000000017
 40
0.3750000000000035
 40
0.3750000000000035
 40
0.4062500000000053
 40
0.4062500000000053
 40
0.437500000000007
 40
0.437500000000007
 40
0.4687500000000089
 40
0.4687500000000089
 40
0.5000000000000107
 40
0.5000000000000107
 40
0.5312500000000124
 40
0.5312500000000124
 40
0.5625000000000141
 40
0.5625000000000141
 40
0.6250000000000177
 40
0.6250000000000177
 40
0.656250000000017
 40
0.656250000000017
 40
0.6875000000000163
 40
0.6875000000000163
 40
0.7187500000000155
 40
0.7187500000000155
 40
0.7500000000000149
 40
0.7500000000000149
 40
0.812500000000009
 40
0.812500000000009
 40
0.8437500000000075
 40
0.8437500000000075
 40
0.875000000000006
 40
0.875000000000006
 40
0.9062500000000046
 40
0.9062500000000046
 40
0.9375000000000031
 40
0.9375000000000031
 40
1.0
 40
1.0
 40
1.0
 40
1.0
 10
-5.61729743116929
 20
-198.5909963922826
 30
0.0
 10
-5.479651435222162
 20
-198.5026796281039
 30
0.0
 10
-5.353443304609902
 20
-198.4028956896314
 30
0.0
 10
-5.122857651454798
 20
-198.1814393908828
 30
0.0
 10
-5.017542049781151
 20
-198.0582820012058
 30
0.0
 10
-4.835488770670759
 20
-197.7965252882653
 30
0.0
 10
-4.758751705810943
 20
-197.6586612750426
 30
0.0
 10
-4.633482011164216
 20
-197.3691435443818
 30
0.0
 10
-4.585050833203051
 20
-197.2164395398497
 30
0.0
 10
-4.52097698281103
 20
-196.9097260355594
 30
0.0
 10
-4.504516766142168
 20
-196.7543065783152
 30
0.0
 10
-4.503409362188468
 20
-196.4392545416354
 30
0.0
 10
-4.51906593297432
 20
-196.2816978714931
 30
0.0
 10
-4.612116322351479
 20
-195.8219093887018
 30
0.0
 10
-4.738518936473611
 20
-195.5237397838723
 30
0.0
 10
-5.007470523372068
 20
-195.1316815839648
 30
0.0
 10
-5.112087911843542
 20
-195.0074980009291
 30
0.0
 10
-5.342284346520713
 20
-194.7836107994635
 30
0.0
 10
-5.467648789014373
 20
-194.6834506817669
 30
0.0
 10
-5.738973793500109
 20
-194.5067723589596
 30
0.0
 10
-5.885602684765136
 20
-194.4304093274653
 30
0.0
 10
-6.187006223949831
 20
-194.3086007082463
 30
0.0
 10
-6.343251732545439
 20
-194.2620268979793
 30
0.0
 10
-6.667213431612445
 20
-194.1985319477452
 30
0.0
 10
-6.831361113667022
 20
-194.1824909129865
 30
0.0
 10
-7.158351548499507
 20
-194.1813459468066
 30
0.0
 10
-7.323652790563021
 20
-194.1963974958101
 30
0.0
 10
-7.647081648871591
 20
-194.2575031028952
 30
0.0
 10
-7.803593457352515
 20
-194.3029057273592
 30
0.0
 10
-8.10641467351788
 20
-194.4228306105029
 30
0.0
 10
-8.25375000579942
 20
-194.4983171570249
 30
0.0
 10
-8.525884507671437
 20
-194.672818807704
 30
0.0
 10
-8.652151979799006
 20
-194.7721572621893
 30
0.0
 10
-8.88482103401224
 20
-194.9953360623991
 30
0.0
 10
-8.989701858570589
 20
-195.1181672569517
 30
0.0
 10
-9.261417956296206
 20
-195.5082235874955
 30
0.0
 10
-9.390077140646328
 20
-195.8054663280922
 30
0.0
 10
-9.486578500709093
 20
-196.2651553509233
 30
0.0
 10
-9.50338811684016
 20
-196.4237301854547
 30
0.0
 10
-9.504481252734442
 20
-196.7373978634128
 30
0.0
 10
-9.489247341548035
 20
-196.8928108075475
 30
0.0
 10
-9.427200757896022
 20
-197.2007936376019
 30
0.0
 10
-9.379836748772071
 20
-197.3536356314071
 30
0.0
 10
-9.256973267994733
 20
-197.6432470158321
 30
0.0
 10
-9.181258893180814
 20
-197.7817708524151
 30
0.0
 10
-8.909806178482471
 20
-198.1778563106632
 30
0.0
 10
-8.677322370869259
 20
-198.4043904674705
 30
0.0
 10
-8.268267267043756
 20
-198.6707081409398
 30
0.0
 10
-8.124658880249529
 20
-198.7454936735334
 30
0.0
 10
-7.823212179854776
 20
-198.867638644373
 30
0.0
 10
-7.663621574046148
 20
-198.9151492297226
 30
0.0
 10
-7.342261129688747
 20
-198.9781552439927
 30
0.0
 10
-7.179641592901266
 20
-198.9943434221489
 30
0.0
 10
-6.850480986080382
 20
-198.9957517110421
 30
0.0
 10
-6.684729739187586
 20
-198.9805573204743
 30
0.0
 10
-6.203349449263007
 20
-198.8899732926573
 30
0.0
 10
-5.892589423063536
 20
-198.7676299206402
 30
0.0
 10
-5.61729743116929
 20
-198.5909963922826
 30
0.0
  0
SPLINE
  5
202
330
1C1
100
AcDbEntity
 67
     1
  8
0
  6
Continuous
 62
     7
370
    15
100
AcDbSpline
210
0.0
220
0.0
230
1.0
 70
    11
 71
     3
 72
    66
 73
    62
 74
     0
 42
0.000000001
 43
0.00000001
 40
0.0
 40
0.0
 40
0.0
 40
0.0
 40
0.031249999999999
 40
0.031249999999999
 40
0.0624999999999979
 40
0.0624999999999979
 40
0.0937499999999969
 40
0.0937499999999969
 40
0.1249999999999959
 40
0.1249999999999959
 40
0.1562499999999948
 40
0.1562499999999948
 40
0.1874999999999938
 40
0.1874999999999938
 40
0.2187499999999928
 40
0.2187499999999928
 40
0.2499999999999917
 40
0.2499999999999917
 40
0.2812499999999907
 40
0.2812499999999907
 40
0.3124999999999897
 40
0.3124999999999897
 40
0.3437499999999886
 40
0.3437499999999886
 40
0.3749999999999876
 40
0.3749999999999876
 40
0.4062499999999866
 40
0.4062499999999866
 40
0.4374999999999855
 40
0.4374999999999855
 40
0.4687499999999845
 40
0.4687499999999845
 40
0.4999999999999835
 40
0.4999999999999835
 40
0.5312499999999825
 40
0.5312499999999825
 40
0.5624999999999813
 40
0.5624999999999813
 40
0.6249999999999845
 40
0.6249999999999845
 40
0.6562499999999859
 40
0.6562499999999859
 40
0.6874999999999875
 40
0.6874999999999875
 40
0.718749999999989
 40
0.718749999999989
 40
0.7499999999999905
 40
0.7499999999999905
 40
0.781249999999992
 40
0.781249999999992
 40
0.8124999999999936
 40
0.8124999999999936
 40
0.8437499999999951
 40
0.8437499999999951
 40
0.8749999999999966
 40
0.8749999999999966
 40
0.9062499999999981
 40
0.9062499999999981
 40
0.9374999999999997
 40
0.9374999999999997
 40
1.0
 40
1.0
 40
1.0
 40
1.0
 10
-11.44523023504236
 20
-194.3228590500937
 30
0.0
 10
-11.35131584306097
 20
-194.1928765296352
 30
0.0
 10
-11.27214186017144
 20
-194.0557568945927
 30
0.0
 10
-11.14219395543876
 20
-193.7677682880141
 30
0.0
 10
-11.09110482891603
 20
-193.6151563676129
 30
0.0
 10
-11.02141789102212
 20
-193.3045173167112
 30
0.0
 10
-11.00254356901693
 20
-193.147214304392
 30
0.0
 10
-10.99656828068087
 20
-192.8286633095759
 30
0.0
 10
-11.00998232363073
 20
-192.6663902157519
 30
0.0
 10
-11.06826950642946
 20
-192.3517522504531
 30
0.0
 10
-11.11290665604353
 20
-192.197729886188
 30
0.0
 10
-11.23397766764459
 20
-191.8964513054748
 30
0.0
 10
-11.30976456855936
 20
-191.7515719759553
 30
0.0
 10
-11.487020629278
 20
-191.480641069849
 30
0.0
 10
-11.58986101308105
 20
-191.3524477746988
 30
0.0
 10
-11.81970160315544
 20
-191.117353390674
 30
0.0
 10
-11.94459570921011
 20
-191.0122380539538
 30
0.0
 10
-12.21379014535061
 20
-190.8261958686068
 30
0.0
 10
-12.35972201797832
 20
-190.7447668140942
 30
0.0
 10
-12.66015659607455
 20
-190.6129781788739
 30
0.0
 10
-12.81537916123984
 20
-190.5617451479086
 30
0.0
 10
-13.13589408002431
 20
-190.4887757202069
 30
0.0
 10
-13.30040202815899
 20
-190.4676201102395
 30
0.0
 10
-13.62552488024141
 20
-190.4568124831746
 30
0.0
 10
-13.78810280574269
 20
-190.4667502593931
 30
0.0
 10
-14.11171106581122
 20
-190.5183107292402
 30
0.0
 10
-14.26795012675172
 20
-190.5591192194121
 30
0.0
 10
-14.56974308482678
 20
-190.6695894781492
 30
0.0
 10
-14.71677229507967
 20
-190.7402478622812
 30
0.0
 10
-14.9910064157954
 20
-190.907153574028
 30
0.0
 10
-15.11809258851341
 20
-191.002827137002
 30
0.0
 10
-15.35234168865156
 20
-191.2184475582555
 30
0.0
 10
-15.4598537126186
 20
-191.3394144185591
 30
0.0
 10
-15.64539946518057
 20
-191.5960250090729
 30
0.0
 10
-15.72477387189539
 20
-191.7326382197141
 30
0.0
 10
-15.8560277562718
 20
-192.022915005414
 30
0.0
 10
-15.90679262214317
 20
-192.1748825500656
 30
0.0
 10
-16.01105021255161
 20
-192.6375820800303
 30
0.0
 10
-16.0175290084616
 20
-192.9647890430054
 30
0.0
 10
-15.93070502275341
 20
-193.4364138148227
 30
0.0
 10
-15.8851687394238
 20
-193.59364773022
 30
0.0
 10
-15.7647394523146
 20
-193.8934297401507
 30
0.0
 10
-15.69017192468307
 20
-194.0365174757424
 30
0.0
 10
-15.51224973131075
 20
-194.3090479596287
 30
0.0
 10
-15.40849729142275
 20
-194.4382340987921
 30
0.0
 10
-15.18093158062018
 20
-194.6713401438205
 30
0.0
 10
-15.0561791103093
 20
-194.776898341173
 30
0.0
 10
-14.7839607210801
 20
-194.9652485525371
 30
0.0
 10
-14.64048641010164
 20
-195.0452052837915
 30
0.0
 10
-14.34107723767573
 20
-195.1769497444007
 30
0.0
 10
-14.1831183430789
 20
-195.2292492488438
 30
0.0
 10
-13.86269636189969
 20
-195.3022722374665
 30
0.0
 10
-13.70105970817755
 20
-195.323221269367
 30
0.0
 10
-13.37497524298122
 20
-195.3344388084016
 30
0.0
 10
-13.20955095080785
 20
-195.3242399975036
 30
0.0
 10
-12.88965044873463
 20
-195.2734559855854
 30
0.0
 10
-12.73350819087134
 20
-195.2331145886193
 30
0.0
 10
-12.42899336069391
 20
-195.1219276296887
 30
0.0
 10
-12.28281025891494
 20
-195.0515794127924
 30
0.0
 10
-11.87369541725867
 20
-194.803125836299
 30
0.0
 10
-11.63305901900514
 20
-194.5828240910105
 30
0.0
 10
-11.44523023504236
 20
-194.3228590500937
 30
0.0
  0
SPLINE
  5
203
330
1C1
100
AcDbEntity
 67
     1
  8
0
  6
Continuous
 62
     7
370
    15
100
AcDbSpline
210
0.0
220
0.0
230
1.0
 70
    11
 71
     3
 72
    66
 73
    62
 74
     0
 42
0.000000001
 43
0.00000001
 40
0.0
 40
0.0
 40
0.0
 40
0.0
 40
0.0312500000000001
 40
0.0312500000000001
 40
0.0625000000000002
 40
0.0625000000000002
 40
0.0937500000000003
 40
0.0937500000000003
 40
0.1250000000000004
 40
0.1250000000000004
 40
0.1875000000000006
 40
0.1875000000000006
 40
0.2187500000000008
 40
0.2187500000000008
 40
0.2500000000000009
 40
0.2500000000000009
 40
0.2812500000000011
 40
0.2812500000000011
 40
0.3125000000000012
 40
0.3125000000000012
 40
0.3437500000000013
 40
0.3437500000000013
 40
0.3750000000000015
 40
0.3750000000000015
 40
0.4062500000000017
 40
0.4062500000000017
 40
0.4375000000000018
 40
0.4375000000000018
 40
0.4687500000000019
 40
0.4687500000000019
 40
0.5000000000000021
 40
0.5000000000000021
 40
0.5312500000000022
 40
0.5312500000000022
 40
0.5625000000000022
 40
0.5625000000000022
 40
0.5937500000000022
 40
0.5937500000000022
 40
0.6250000000000022
 40
0.6250000000000022
 40
0.6562500000000021
 40
0.6562500000000021
 40
0.6875000000000021
 40
0.6875000000000021
 40
0.7187500000000021
 40
0.7187500000000021
 40
0.7500000000000019
 40
0.7500000000000019
 40
0.7812500000000017
 40
0.7812500000000017
 40
0.8125000000000014
 40
0.8125000000000014
 40
0.8437500000000012
 40
0.8437500000000012
 40
0.8750000000000009
 40
0.8750000000000009
 40
0.9062500000000007
 40
0.9062500000000007
 40
0.9375000000000004
 40
0.9375000000000004
 40
1.0
 40
1.0
 40
1.0
 40
1.0
 10
-11.74494043232204
 20
-187.3170179965154
 30
0.0
 10
-11.62684202591263
 20
-187.2034523034978
 30
0.0
 10
-11.52214319552945
 20
-187.0799572908427
 30
0.0
 10
-11.33848952869603
 20
-186.8138895954189
 30
0.0
 10
-11.25888977761606
 20
-186.6695650405239
 30
0.0
 10
-11.1312553756324
 20
-186.3701525490127
 30
0.0
 10
-11.08294456956543
 20
-186.2155878717532
 30
0.0
 10
-11.01709741863932
 20
-185.8968159277656
 30
0.0
 10
-10.99993835822029
 20
-185.7318819787302
 30
0.0
 10
-10.99762468622927
 20
-185.2438261070263
 30
0.0
 10
-11.06181490420533
 20
-184.9144620966882
 30
0.0
 10
-11.24644679991575
 20
-184.4609746427182
 30
0.0
 10
-11.32342063625832
 20
-184.314182622736
 30
0.0
 10
-11.50412878842555
 20
-184.0385502476906
 30
0.0
 10
-11.60658752884802
 20
-183.9110655058674
 30
0.0
 10
-11.83518187055502
 20
-183.6763043769238
 30
0.0
 10
-11.96272247444159
 20
-183.5683188571238
 30
0.0
 10
-12.23206212449121
 20
-183.3815132831766
 30
0.0
 10
-12.37453959151241
 20
-183.3016012215018
 30
0.0
 10
-12.67529667433747
 20
-183.1690814091683
 30
0.0
 10
-12.83297122031914
 20
-183.1171780251368
 30
0.0
 10
-13.15084685884021
 20
-183.0454682242311
 30
0.0
 10
-13.31263882210003
 20
-183.0248870378785
 30
0.0
 10
-13.64219637355492
 20
-183.0156896973582
 30
0.0
 10
-13.80453172698764
 20
-183.0272326095204
 30
0.0
 10
-14.12430053515472
 20
-183.0813945919741
 30
0.0
 10
-14.28341283585727
 20
-183.1247125725594
 30
0.0
 10
-14.587690239735
 20
-183.2412657336248
 30
0.0
 10
-14.73218995693874
 20
-183.3138009334995
 30
0.0
 10
-15.00602402478878
 20
-183.4871802558726
 30
0.0
 10
-15.13603244187411
 20
-183.5890931387799
 30
0.0
 10
-15.3693754924175
 20
-183.8132974430446
 30
0.0
 10
-15.47421067412254
 20
-183.9362745064257
 30
0.0
 10
-15.65964945260375
 20
-184.2044924322596
 30
0.0
 10
-15.73873134952747
 20
-184.3480812313606
 30
0.0
 10
-15.86589033140661
 20
-184.6456149072828
 30
0.0
 10
-15.91502637392987
 20
-184.8018663206816
 30
0.0
 10
-15.98133461671706
 20
-185.1226428657271
 30
0.0
 10
-15.99814841291541
 20
-185.2842284357666
 30
0.0
 10
-16.00004589948471
 20
-185.6097239514148
 30
0.0
 10
-15.98461576090518
 20
-185.7752949542381
 30
0.0
 10
-15.92243772450133
 20
-186.0962187109705
 30
0.0
 10
-15.8760274069869
 20
-186.25255534863
 30
0.0
 10
-15.75243301157992
 20
-186.5569423074365
 30
0.0
 10
-15.67512387979462
 20
-186.7041998596979
 30
0.0
 10
-15.49609288555961
 20
-186.9777757448871
 30
0.0
 10
-15.39371314463965
 20
-187.1058317195758
 30
0.0
 10
-15.1625102959373
 20
-187.343482481919
 30
0.0
 10
-15.03739791603466
 20
-187.4492829756598
 30
0.0
 10
-14.76893932936427
 20
-187.6359135219602
 30
0.0
 10
-14.62392740334882
 20
-187.7173987358342
 30
0.0
 10
-14.32326203674231
 20
-187.8499044628873
 30
0.0
 10
-14.16840047420179
 20
-187.9010243239174
 30
0.0
 10
-13.84969812745547
 20
-187.9732597585962
 30
0.0
 10
-13.68463196871749
 20
-187.9941214181076
 30
0.0
 10
-13.3590646928045
 20
-188.0033018384612
 30
0.0
 10
-13.19704665684705
 20
-187.9921857126969
 30
0.0
 10
-12.87457900883836
 20
-187.93779158489
 30
0.0
 10
-12.71589949968761
 20
-187.8944626110811
 30
0.0
 10
-12.26245102721695
 20
-187.7211706109965
 30
0.0
 10
-11.98113724514085
 20
-187.5441493825507
 30
0.0
 10
-11.74494043232204
 20
-187.3170179965154
 30
0.0
  0
SPLINE
  5
204
330
1C1
100
AcDbEntity
 67
     1
  8
0
  6
Continuous
 62
     7
370
    15
100
AcDbSpline
210
0.0
220
0.0
230
1.0
 70
     8
 71
     3
 72
    17
 73
    13
 74
     0
 42
0.000000001
 43
0.00000001
 40
0.0
 40
0.0
 40
0.0
 40
0.0
 40
0.0896193687478642
 40
0.2093393258601158
 40
0.3243462136823452
 40
0.4312693233251422
 40
0.5310301874996572
 40
0.6274980974534793
 40
0.7251661653370487
 40
0.8277397992357041
 40
0.9373660702580803
 40
0.9999999999999999
 40
0.9999999999999999
 40
0.9999999999999999
 40
0.9999999999999999
 10
-10.70945156106359
 20
-210.85144313317
 30
0.0
 10
-10.70077944709845
 20
-210.5404034286041
 30
0.0
 10
-10.680522503576
 20
-209.8138546592999
 30
0.0
 10
-10.08568362229618
 20
-208.7720371580221
 30
0.0
 10
-9.100692261290025
 20
-207.9123507024052
 30
0.0
 10
-7.881712447207786
 20
-207.4419876510041
 30
0.0
 10
-6.628470804828015
 20
-207.3714660828145
 30
0.0
 10
-5.460546483427187
 20
-207.6568036967862
 30
0.0
 10
-4.45050453421811
 20
-208.2531005434643
 30
0.0
 10
-3.69637826952121
 20
-209.1231378544472
 30
0.0
 10
-3.275509171467945
 20
-210.035241718151
 30
0.0
 10
-3.30208211505995
 20
-210.6315599043705
 30
0.0
 10
-3.311744055976035
 20
-210.848381614863
 30
0.0
  0
SPLINE
  5
205
330
1C1
100
AcDbEntity
 67
     1
  8
0
  6
Continuous
 62
     7
370
    15
100
AcDbSpline
210
0.0
220
0.0
230
1.0
 70
     8
 71
     3
 72
    17
 73
    13
 74
     0
 42
0.000000001
 43
0.00000001
 40
0.0
 40
0.0
 40
0.0
 40
0.0
 40
0.0975155193004228
 40
0.2085272837803326
 40
0.311416879381141
 40
0.4089157429321655
 40
0.5054590798052724
 40
0.6052509161715175
 40
0.7112892273783002
 40
0.8246144393308582
 40
0.9434577494621499
 40
1.0
 40
1.0
 40
1.0
 40
1.0
 10
0.5320401389557012
 20
-208.0123238511084
 30
0.0
 10
0.5497617615052219
 20
-207.6613295410903
 30
0.0
 10
0.5876576968490838
 20
-206.9107629582991
 30
0.0
 10
1.203577416952607
 20
-205.8480334156231
 30
0.0
 10
2.138182863711674
 20
-205.0066061538729
 30
0.0
 10
3.262732736144327
 20
-204.5059739336874
 30
0.0
 10
4.455220747488594
 20
-204.3518817094485
 30
0.0
 10
5.634081611783243
 20
-204.5457749949003
 30
0.0
 10
6.711906628226447
 20
-205.0922670497253
 30
0.0
 10
7.533601025965169
 20
-205.9793481840973
 30
0.0
 10
7.986477677994498
 20
-206.920313771783
 30
0.0
 10
7.94588154271016
 20
-207.5465902321106
 30
0.0
 10
7.932793824181007
 20
-207.7484944275911
 30
0.0
  0
SPLINE
  5
206
330
1C1
100
AcDbEntity
 67
     1
  8
0
  6
Continuous
 62
     7
370
    15
100
AcDbSpline
210
0.0
220
0.0
230
1.0
 70
     8
 71
     3
 72
    17
 73
    13
 74
     0
 42
0.000000001
 43
0.00000001
 40
0.0
 40
0.0
 40
0.0
 40
0.0
 40
0.0775953693777538
 40
0.1931265060799829
 40
0.3128868732887634
 40
0.4312087078426514
 40
0.5428912317862425
 40
0.6463803431200006
 40
0.7441500914720863
 40
0.8405816475769493
 40
0.9399444076916645
 40
1.0
 40
1.0
 40
1.0
 40
1.0
 10
-21.96240262839463
 20
-207.751089993873
 30
0.0
 10
-21.95798842380009
 20
-207.4754675849713
 30
0.0
 10
-21.94700194461581
 20
-206.7894731338155
 30
0.0
 10
-21.42288368299309
 20
-205.79597315154
 30
0.0
 10
-20.48885837592288
 20
-204.9193473366464
 30
0.0
 10
-19.23695783250938
 20
-204.4195024571918
 30
0.0
 10
-17.88967825821737
 20
-204.3688300276369
 30
0.0
 10
-16.64529286051436
 20
-204.7318523707218
 30
0.0
 10
-15.62576357035391
 20
-205.4125101238597
 30
0.0
 10
-14.91027331611555
 20
-206.3191228732096
 30
0.0
 10
-14.52721656802727
 20
-207.2276020410841
 30
0.0
 10
-14.54565296698161
 20
-207.7950958969555
 30
0.0
 10
-14.55259827059569
 20
-208.0088804401256
 30
0.0
  0
SPLINE
  5
207
330
1C1
100
AcDbEntity
 67
     1
  8
0
  6
Continuous
 62
     7
370
    15
100
AcDbSpline
210
0.0
220
0.0
230
1.0
 70
     8
 71
     3
 72
    17
 73
    13
 74
     0
 42
0.000000001
 43
0.00000001
 40
0.0
 40
0.0
 40
0.0
 40
0.0
 40
0.0569590518788209
 40
0.1591783876879442
 40
0.2689716707933865
 40
0.385764778536029
 40
0.5056985070076683
 40
0.6228985403485993
 40
0.7327467984183437
 40
0.8346506114094292
 40
0.931709197207201
 40
0.9999999999999999
 40
0.9999999999999999
 40
0.9999999999999999
 40
0.9999999999999999
 10
-30.19622326538405
 20
-199.5422678089713
 30
0.0
 10
-30.20081912847341
 20
-199.3254281332028
 30
0.0
 10
-30.21366277759446
 20
-198.7194456100201
 30
0.0
 10
-29.81139150290043
 20
-197.8010491050571
 30
0.0
 10
-29.03758599115958
 20
-196.9025064328394
 30
0.0
 10
-27.90643250481268
 20
-196.302635467882
 30
0.0
 10
-26.5640010270756
 20
-196.1223483789619
 30
0.0
 10
-25.2055751961143
 20
-196.4157033135592
 30
0.0
 10
-24.04089505445506
 20
-197.1216565788688
 30
0.0
 10
-23.22566712112207
 20
-198.0966466559984
 30
0.0
 10
-22.78465496699535
 20
-199.1011269794186
 30
0.0
 10
-22.77923304446077
 20
-199.7327445043242
 30
0.0
 10
-22.77699374109399
 20
-199.993608292219
 30
0.0
  0
SPLINE
  5
208
330
1C1
100
AcDbEntity
 67
     1
  8
0
  6
Continuous
 62
     7
370
    15
100
AcDbSpline
210
0.0
220
0.0
230
1.0
 70
     8
 71
     3
 72
    18
 73
    14
 74
     0
 42
0.000000001
 43
0.00000001
 40
0.0
 40
0.0
 40
0.0
 40
0.0
 40
0.0206862041209886
 40
0.1250124795891602
 40
0.2232012218116856
 40
0.3195388261172687
 40
0.418371737783172
 40
0.5229891562345825
 40
0.6348824935097461
 40
0.7528907735044571
 40
0.8727518254410525
 40
0.9884380312796963
 40
1.0
 40
1.0
 40
1.0
 40
1.0
 10
8.767462856697321
 20
-199.9875559632264
 30
0.0
 10
8.756111039113543
 20
-199.9111271992374
 30
0.0
 10
8.68750885111944
 20
-199.4492469411524
 30
0.0
 10
8.98357044854011
 20
-198.5691232687337
 30
0.0
 10
9.618042887345615
 20
-197.5414686041638
 30
0.0
 10
10.55443580457109
 20
-196.760088676911
 30
0.0
 10
11.6715797685036
 20
-196.2763730863608
 30
0.0
 10
12.90651384387
 20
-196.1373945292374
 30
0.0
 10
14.14326531188996
 20
-196.3955761419017
 30
0.0
 10
15.2450899839363
 20
-197.0710038988738
 30
0.0
 10
15.96955427912276
 20
-198.1112475628881
 30
0.0
 10
16.29346119215681
 20
-199.0078530691224
 30
0.0
 10
16.21710941702586
 20
-199.4929641233541
 30
0.0
 10
16.21017197498504
 20
-199.5370420746044
 30
0.0
  0
SPLINE
  5
209
330
1C1
100
AcDbEntity
 67
     1
  8
0
  6
Continuous
 62
     7
370
    15
100
AcDbSpline
210
0.0
220
0.0
230
1.0
 70
     8
 71
     3
 72
    10
 73
     6
 74
     0
 42
0.000000001
 43
0.00000001
 40
0.0
 40
0.0
 40
0.0
 40
0.0
 40
0.4324236282173007
 40
0.8688365435895355
 40
1.0
 40
1.0
 40
1.0
 40
1.0
 10
-7.003948752968546
 20
-166.9715778476723
 30
0.0
 10
-7.441816375210851
 20
-166.9691439942554
 30
0.0
 10
-8.321591129951116
 20
-166.9642538341153
 30
0.0
 10
-9.283699083828708
 20
-166.94614615272
 30
0.0
 10
-9.65780084913477
 20
-166.9070698032107
 30
0.0
 10
-9.7442534976703
 20
-166.8980394958893
 30
0.0
  0
SPLINE
  5
20A
330
1C1
100
AcDbEntity
 67
     1
  8
0
  6
Continuous
 62
     7
370
    15
100
AcDbSpline
210
0.0
220
0.0
230
1.0
 70
     8
 71
     3
 72
    11
 73
     7
 74
     0
 42
0.000000001
 43
0.00000001
 40
0.0
 40
0.0
 40
0.0
 40
0.0
 40
0.1157832808407234
 40
0.5564677678055442
 40
0.9957874548500788
 40
1.0
 40
1.0
 40
1.0
 40
1.0
 10
-4.257746779487273
 20
-166.8981703711057
 30
0.0
 10
-4.33329778985592
 20
-166.9063178908851
 30
0.0
 10
-4.696404637321485
 20
-166.9454758082621
 30
0.0
 10
-5.655737639614133
 20
-166.9624728228031
 30
0.0
 10
-6.547248800807025
 20
-166.9715612581784
 30
0.0
 10
-6.999651954288152
 20
-166.9715776915923
 30
0.0
 10
-7.003948752968546
 20
-166.9715778476723
 30
0.0
  0
SPLINE
  5
20C
330
1C1
100
AcDbEntity
 67
     1
  8
0
  6
Continuous
 62
     7
370
    15
100
AcDbSpline
210
0.0
220
0.0
230
1.0
 70
     8
 71
     3
 72
    11
 73
     7
 74
     0
 42
0.000000001
 43
0.00000001
 40
0.0
 40
0.0
 40
0.0
 40
0.0
 40
0.1068503795450105
 40
0.4260808139302208
 40
0.7463695369878641
 40
1.0
 40
1.0
 40
1.0
 40
1.0
 10
-7.003948752968545
 20
-167.9563856006845
 30
0.0
 10
-6.855308267025097
 20
-167.9562081452707
 30
0.0
 10
-6.262583566341292
 20
-167.9555005170202
 30
0.0
 10
-5.252653879738942
 20
-167.9427116155153
 30
0.0
 10
-4.188621265532364
 20
-167.9070346790422
 30
0.0
 10
-3.763041252373797
 20
-167.838774266204
 30
0.0
 10
-3.574965895414055
 20
-167.808608137359
 30
0.0
  0
SPLINE
  5
20D
330
1C1
100
AcDbEntity
 67
     1
  8
0
  6
Continuous
 62
     7
370
    15
100
AcDbSpline
210
0.0
220
0.0
230
1.0
 70
     8
 71
     3
 72
    15
 73
    11
 74
     0
 42
0.000000001
 43
0.00000001
 40
0.0
 40
0.0
 40
0.0
 40
0.0
 40
0.0658237940132936
 40
0.2108006965859051
 40
0.3567830511279012
 40
0.5022855955227429
 40
0.6465842023746916
 40
0.790817709404456
 40
0.9362129826568075
 40
1.0
 40
1.0
 40
1.0
 40
1.0
 10
-3.374567156252717
 20
-167.2191471624269
 30
0.0
 10
-3.44306085979539
 20
-167.1769662639061
 30
0.0
 10
-3.662411941497366
 20
-167.041881938791
 30
0.0
 10
-4.457412904425413
 20
-166.8158740602562
 30
0.0
 10
-5.631962451980939
 20
-166.6173146198221
 30
0.0
 10
-6.983074046714344
 20
-166.5432906534873
 30
0.0
 10
-8.33078241940684
 20
-166.6128979653137
 30
0.0
 10
-9.506163138714458
 20
-166.8061156442415
 30
0.0
 10
-10.30821928344415
 20
-167.028104288511
 30
0.0
 10
-10.53352392754778
 20
-167.1624951974233
 30
0.0
 10
-10.60222721595725
 20
-167.2034756992294
 30
0.0
  0
SPLINE
  5
20E
330
1C1
100
AcDbEntity
 67
     1
  8
0
  6
Continuous
 62
     7
370
    15
100
AcDbSpline
210
0.0
220
0.0
230
1.0
 70
     8
 71
     3
 72
    11
 73
     7
 74
     0
 42
0.000000001
 43
0.00000001
 40
0.0
 40
0.0
 40
0.0
 40
0.0
 40
0.155128423914334
 40
0.4711964436707607
 40
0.7885209803075214
 40
1.0
 40
1.0
 40
1.0
 40
1.0
 10
-10.45560687677688
 20
-167.7980790031979
 30
0.0
 10
-10.35850713035837
 20
-167.82051239883
 30
0.0
 10
-10.06357049631509
 20
-167.8886529495725
 30
0.0
 10
-9.168054135255966
 20
-167.9307391393503
 30
0.0
 10
-8.056744802766882
 20
-167.9541837230597
 30
0.0
 10
-7.304704550496508
 20
-167.9557565828788
 30
0.0
 10
-7.003948752968545
 20
-167.9563856006845
 30
0.0
  0
SPLINE
  5
210
330
1C1
100
AcDbEntity
 67
     1
  8
0
  6
Continuous
 62
     7
370
    15
100
AcDbSpline
210
0.0
220
0.0
230
1.0
 70
     8
 71
     3
 72
    18
 73
    14
 74
     0
 42
0.000000001
 43
0.00000001
 40
0.0
 40
0.0
 40
0.0
 40
0.0
 40
0.0092755901288127
 40
0.1053901455628894
 40
0.2017608506654054
 40
0.3028424087459209
 40
0.4112870682930729
 40
0.5270655488181387
 40
0.6468571471560152
 40
0.7649400805866436
 40
0.8762222820984404
 40
0.979348558412993
 40
1.0
 40
1.0
 40
1.0
 40
1.0
 10
-33.23710963029298
 20
-188.4222608439163
 30
0.0
 10
-33.24262790058928
 20
-188.3851658779101
 30
0.0
 10
-33.30532701748707
 20
-187.9636893127808
 30
0.0
 10
-33.06630490027081
 20
-187.1672188861786
 30
0.0
 10
-32.52710883217311
 20
-186.181044804977
 30
0.0
 10
-31.63836170021755
 20
-185.4250366165386
 30
0.0
 10
-30.49826024640243
 20
-184.9844382106191
 30
0.0
 10
-29.18355512740132
 20
-184.9535581843296
 30
0.0
 10
-27.86601699409302
 20
-185.390619725189
 30
0.0
 10
-26.73763290419167
 20
-186.2624987582664
 30
0.0
 10
-26.02245635558137
 20
-187.4176981626945
 30
0.0
 10
-25.71773478884998
 20
-188.373367687463
 30
0.0
 10
-25.77581473706873
 20
-188.8622394554422
 30
0.0
 10
-25.78550496789823
 20
-188.9438042712355
 30
0.0
  0
SPLINE
  5
211
330
1C1
100
AcDbEntity
 67
     1
  8
0
  6
Continuous
 62
     7
370
    15
100
AcDbSpline
210
0.0
220
0.0
230
1.0
 70
     8
 71
     3
 72
    17
 73
    13
 74
     0
 42
0.000000001
 43
0.00000001
 40
0.0
 40
0.0
 40
0.0
 40
0.0
 40
0.0285320413405037
 40
0.1249716697120295
 40
0.2224980105159765
 40
0.3248459162009601
 40
0.4342121933127777
 40
0.5504382836495106
 40
0.6702952091731148
 40
0.788048329732781
 40
0.8983989940117868
 40
1.0
 40
1.0
 40
1.0
 40
1.0
 10
11.78654023814571
 20
-188.9432690148284
 30
0.0
 10
11.77472665571899
 20
-188.8301299983694
 30
0.0
 10
11.72298261457139
 20
-188.3345758377783
 30
0.0
 10
12.01620763535722
 20
-187.437610001886
 30
0.0
 10
12.63535935497132
 20
-186.4001150641201
 30
0.0
 10
13.58443277219065
 20
-185.5696125119754
 30
0.0
 10
14.76883655222105
 20
-185.043592263488
 30
0.0
 10
16.09326080385679
 20
-184.921826026378
 30
0.0
 10
17.38792136081099
 20
-185.2710920847495
 30
0.0
 10
18.43613305018501
 20
-186.067913967957
 30
0.0
 10
19.12078017769132
 20
-187.1716029177923
 30
0.0
 10
19.20531005939672
 20
-188.0177374461196
 30
0.0
 10
19.24583024499614
 20
-188.4233399080914
 30
0.0
  0
SPLINE
  5
212
330
1C1
100
AcDbEntity
 67
     1
  8
0
  6
Continuous
 62
     7
370
    15
100
AcDbSpline
210
0.0
220
0.0
230
1.0
 70
     8
 71
     3
 72
    17
 73
    13
 74
     0
 42
0.000000001
 43
0.00000001
 40
0.0
 40
0.0
 40
0.0
 40
0.0
 40
0.1024259584943055
 40
0.213259793811892
 40
0.3211783607772128
 40
0.4260485476577569
 40
0.5290817937164651
 40
0.6321652698815012
 40
0.7370836853050431
 40
0.8449011008724886
 40
0.9555489499636278
 40
1.0
 40
1.0
 40
1.0
 40
1.0
 10
-6.176875108883904
 20
-203.021975498401
 30
0.0
 10
-6.155503502284852
 20
-202.746310985502
 30
0.0
 10
-6.111005950260523
 20
-202.1723533868003
 30
0.0
 10
-5.647109497479701
 20
-201.3869995594893
 30
0.0
 10
-4.945020567319159
 20
-200.7756589199416
 30
0.0
 10
-4.079517045688157
 20
-200.4256963723325
 30
0.0
 10
-3.160313389081208
 20
-200.3606585066009
 30
0.0
 10
-2.277991676061184
 20
-200.5768259110848
 30
0.0
 10
-1.510531644224632
 20
-201.0531610219325
 30
0.0
 10
-0.9630698237235386
 20
-201.7501633833874
 30
0.0
 10
-0.6851342987852149
 20
-202.4268572477545
 30
0.0
 10
-0.7198813889602229
 20
-202.8421069681491
 30
0.0
 10
-0.7298398390374076
 20
-202.9611167496672
 30
0.0
  0
SPLINE
  5
213
330
1C1
100
AcDbEntity
 67
     1
  8
0
  6
Continuous
 62
     7
370
    15
100
AcDbSpline
210
0.0
220
0.0
230
1.0
 70
     8
 71
     3
 72
    17
 73
    13
 74
     0
 42
0.000000001
 43
0.00000001
 40
0.0
 40
0.0
 40
0.0
 40
0.0
 40
0.1081341978359677
 40
0.2202561768293023
 40
0.3319734716518042
 40
0.4413301561068265
 40
0.5475094606756258
 40
0.651167014049926
 40
0.7539819662792984
 40
0.8578742880610645
 40
0.9643009621671346
 40
1.0
 40
1.0
 40
1.0
 40
1.0
 10
-13.69194593301654
 20
-202.8599206538072
 30
0.0
 10
-13.6632966096086
 20
-202.5706558727376
 30
0.0
 10
-13.604941430869
 20
-201.981458782041
 30
0.0
 10
-13.12010584572269
 20
-201.1984823963512
 30
0.0
 10
-12.39442879129821
 20
-200.6073526114043
 30
0.0
 10
-11.49651286008078
 20
-200.2910809178478
 30
0.0
 10
-10.55193468093275
 20
-200.278592536137
 30
0.0
 10
-9.669543104683115
 20
-200.5548834357141
 30
0.0
 10
-8.929286942251856
 20
-201.0790843526504
 30
0.0
 10
-8.424496406720564
 20
-201.7955453947619
 30
0.0
 10
-8.181599790405446
 20
-202.4480462209424
 30
0.0
 10
-8.220164496507609
 20
-202.8264188153126
 30
0.0
 10
-8.229851152661324
 20
-202.9214581813574
 30
0.0
  0
SPLINE
  5
214
330
1C1
100
AcDbEntity
 67
     1
  8
0
  6
Continuous
 62
     7
370
    15
100
AcDbSpline
210
0.0
220
0.0
230
1.0
 70
     8
 71
     3
 72
    18
 73
    14
 74
     0
 42
0.000000001
 43
0.00000001
 40
0.0
 40
0.0
 40
0.0
 40
0.0
 40
0.0008085798217068
 40
0.1100202345909708
 40
0.2160529731484305
 40
0.3196326138254111
 40
0.4224710918180636
 40
0.5264802370324739
 40
0.6330771409154097
 40
0.742684778704473
 40
0.8544815964158334
 40
0.966588079070906
 40
1.0
 40
1.0
 40
1.0
 40
1.0
 10
0.3612253287540576
 20
-199.4640387746667
 30
0.0
 10
0.3608283061582607
 20
-199.4618841445366
 30
0.0
 10
0.3068070234663132
 20
-199.1687122077569
 30
0.0
 10
0.4939060836213101
 20
-198.5558182660807
 30
0.0
 10
0.9286581235501273
 20
-197.7631035638098
 30
0.0
 10
1.632586564079615
 20
-197.1574932481173
 30
0.0
 10
2.477223737425493
 20
-196.7989804011458
 30
0.0
 10
3.392974056627453
 20
-196.7154852729249
 30
0.0
 10
4.286595704712878
 20
-196.9210386921353
 30
0.0
 10
5.070549573686918
 20
-197.4067490932542
 30
0.0
 10
5.615399324171429
 20
-198.1309801213669
 30
0.0
 10
5.878158355034605
 20
-198.8065720203808
 30
0.0
 10
5.835107356903562
 20
-199.2060167503575
 30
0.0
 10
5.825222582812831
 20
-199.2977317183945
 30
0.0
  0
SPLINE
  5
215
330
1C1
100
AcDbEntity
 67
     1
  8
0
  6
Continuous
 62
     7
370
    15
100
AcDbSpline
210
0.0
220
0.0
230
1.0
 70
     8
 71
     3
 72
    17
 73
    13
 74
     0
 42
0.000000001
 43
0.00000001
 40
0.0
 40
0.0
 40
0.0
 40
0.0
 40
0.0826279936906736
 40
0.1907951106676301
 40
0.3017398973820491
 40
0.4139420489707181
 40
0.5252342467593818
 40
0.6338507884890169
 40
0.739317141768761
 40
0.8425857893929797
 40
0.9454618534221684
 40
1.0
 40
1.0
 40
1.0
 40
1.0
 10
-20.11924347770651
 20
-199.0276096601728
 30
0.0
 10
-20.11125740487739
 20
-198.8003972990438
 30
0.0
 10
-20.09281687908011
 20
-198.2757445070499
 30
0.0
 10
-19.70532222820842
 20
-197.5328219062617
 30
0.0
 10
-19.05208039988286
 20
-196.8969800894652
 30
0.0
 10
-18.18443084188922
 20
-196.5147771063211
 30
0.0
 10
-17.22299158463297
 20
-196.4412283880569
 30
0.0
 10
-16.29200420972046
 20
-196.6823520300922
 30
0.0
 10
-15.49955919842252
 20
-197.1954091928564
 30
0.0
 10
-14.94324656520931
 20
-197.9082916566438
 30
0.0
 10
-14.65557657501881
 20
-198.6116060741971
 30
0.0
 10
-14.67448320333939
 20
-199.0438163282226
 30
0.0
 10
-14.68103364413291
 20
-199.1935610437447
 30
0.0
  0
SPLINE
  5
216
330
1C1
100
AcDbEntity
 67
     1
  8
0
  6
Continuous
 62
     7
370
    15
100
AcDbSpline
210
0.0
220
0.0
230
1.0
 70
     8
 71
     3
 72
    17
 73
    13
 74
     0
 42
0.000000001
 43
0.00000001
 40
0.0
 40
0.0
 40
0.0
 40
0.0
 40
0.0367441676191162
 40
0.1376412455446704
 40
0.2452035249663662
 40
0.3599295517520668
 40
0.4793629589092437
 40
0.5982022442226369
 40
0.7106682676959668
 40
0.8143222740229789
 40
0.9115286345752225
 40
1.0
 40
1.0
 40
1.0
 40
1.0
 10
8.774185496900136
 20
-177.8312281633476
 30
0.0
 10
8.763372361850989
 20
-177.6816998634379
 30
0.0
 10
8.722867066103515
 20
-177.1215766445073
 30
0.0
 10
9.05019526160265
 20
-176.1506195693191
 30
0.0
 10
9.741550803160651
 20
-175.0539400154758
 30
0.0
 10
10.80704811218883
 20
-174.2013914596295
 30
0.0
 10
12.11296112974931
 20
-173.7407448338153
 30
0.0
 10
13.4872478556708
 20
-173.7753227537001
 30
0.0
 10
14.71113788535577
 20
-174.2988602721612
 30
0.0
 10
15.60750798015039
 20
-175.1887287626562
 30
0.0
 10
16.14486713550486
 20
-176.2619027902998
 30
0.0
 10
16.19522298978845
 20
-177.0210376141635
 30
0.0
 10
16.21921645029728
 20
-177.3827487136253
 30
0.0
  0
SPLINE
  5
217
330
1C1
100
AcDbEntity
 67
     1
  8
0
  6
Continuous
 62
     7
370
    15
100
AcDbSpline
210
0.0
220
0.0
230
1.0
 70
     8
 71
     3
 72
    18
 73
    14
 74
     0
 42
0.000000001
 43
0.00000001
 40
0.0
 40
0.0
 40
0.0
 40
0.0
 40
0.0114072016990726
 40
0.116827870866683
 40
0.2149986297923659
 40
0.3106014269033648
 40
0.4086641712536762
 40
0.5129240756501557
 40
0.6249204105099831
 40
0.7431402463553876
 40
0.8629164577748645
 40
0.978352593354344
 40
1.0
 40
1.0
 40
1.0
 40
1.0
 10
-30.21766815199804
 20
-177.3784165572482
 30
0.0
 10
-30.22482950157818
 20
-177.3327078750135
 30
0.0
 10
-30.29817310030211
 20
-176.8645783401391
 30
0.0
 10
-30.02468830704617
 20
-175.980385200527
 30
0.0
 10
-29.42232793520152
 20
-174.936681663322
 30
0.0
 10
-28.51066941282419
 20
-174.1911397519609
 30
0.0
 10
-27.41488914700168
 20
-173.7800099021444
 30
0.0
 10
-26.18812619616904
 20
-173.7456003699216
 30
0.0
 10
-24.94124007867946
 20
-174.1369646954762
 30
0.0
 10
-23.81476643233211
 20
-174.9662994555135
 30
0.0
 10
-23.04754566852645
 20
-176.1534916305109
 30
0.0
 10
-22.69425021568541
 20
-177.1879238434574
 30
0.0
 10
-22.76446355485784
 20
-177.7419545525505
 30
0.0
 10
-22.77555122213244
 20
-177.8294437424214
 30
0.0
  0
SPLINE
  5
218
330
1C1
100
AcDbEntity
 67
     1
  8
0
  6
Continuous
 62
     7
370
    15
100
AcDbSpline
210
0.0
220
0.0
230
1.0
 70
     8
 71
     3
 72
    18
 73
    14
 74
     0
 42
0.000000001
 43
0.00000001
 40
0.0
 40
0.0
 40
0.0
 40
0.0
 40
0.0120269331424124
 40
0.1163320350558278
 40
0.2192039529549759
 40
0.3225712423274777
 40
0.4281004969883997
 40
0.5366234230781249
 40
0.6477809854037451
 40
0.7600222434777685
 40
0.8711687548206841
 40
0.9794732781833061
 40
1.0
 40
1.0
 40
1.0
 40
1.0
 10
4.21589000806352
 20
-193.1416345028742
 30
0.0
 10
4.210769824863291
 20
-193.1082722389901
 30
0.0
 10
4.161244203951595
 20
-192.7855715133981
 30
0.0
 10
4.357821609265143
 20
-192.1513982174271
 30
0.0
 10
4.802365269579649
 20
-191.3665573969964
 30
0.0
 10
5.504305620043818
 20
-190.7580198026999
 30
0.0
 10
6.359455217926958
 20
-190.3904979895094
 30
0.0
 10
7.297207707172265
 20
-190.3094491060707
 30
0.0
 10
8.209432819244805
 20
-190.5399447744749
 30
0.0
 10
8.991762272746895
 20
-191.0679349231445
 30
0.0
 10
9.50274067735695
 20
-191.8303476032316
 30
0.0
 10
9.730536022891402
 20
-192.49221676202
 30
0.0
 10
9.683531243238216
 20
-192.8567447135126
 30
0.0
 10
9.676041957276157
 20
-192.9148250638522
 30
0.0
  0
SPLINE
  5
219
330
1C1
100
AcDbEntity
 67
     1
  8
0
  6
Continuous
 62
     7
370
    15
100
AcDbSpline
210
0.0
220
0.0
230
1.0
 70
     8
 71
     3
 72
    17
 73
    13
 74
     0
 42
0.000000001
 43
0.00000001
 40
0.0
 40
0.0
 40
0.0
 40
0.0
 40
0.0998666651824592
 40
0.2039428950251243
 40
0.3108014101120985
 40
0.4207168675847716
 40
0.5326509590171721
 40
0.6445952253574502
 40
0.754481439267972
 40
0.8612292275617199
 40
0.9652344601576373
 40
1.0
 40
1.0
 40
1.0
 40
1.0
 10
-23.80527723166101
 20
-192.5444624039289
 30
0.0
 10
-23.77983698118695
 20
-192.2619524908112
 30
0.0
 10
-23.72788412662466
 20
-191.6850243491809
 30
0.0
 10
-23.28862491406721
 20
-190.9201797415847
 30
0.0
 10
-22.6197958343735
 20
-190.3257615159877
 30
0.0
 10
-21.75574062289286
 20
-189.9837278049048
 30
0.0
 10
-20.79734038588754
 20
-189.9485007509565
 30
0.0
 10
-19.86434898861132
 20
-190.235917100111
 30
0.0
 10
-19.07245220288225
 20
-190.8098918248276
 30
0.0
 10
-18.54354082135718
 20
-191.586655288866
 30
0.0
 10
-18.29714616957951
 20
-192.2817232814946
 30
0.0
 10
-18.33298284771717
 20
-192.6725215927413
 30
0.0
 10
-18.34196082946161
 20
-192.7704263173549
 30
0.0
  0
SPLINE
  5
21A
330
1C1
100
AcDbEntity
 67
     1
  8
0
  6
Continuous
 62
     7
370
    15
100
AcDbSpline
210
0.0
220
0.0
230
1.0
 70
     8
 71
     3
 72
    17
 73
    13
 74
     0
 42
0.000000001
 43
0.00000001
 40
0.0
 40
0.0
 40
0.0
 40
0.0
 40
0.0619801478986638
 40
0.1706015269546804
 40
0.2789164776890881
 40
0.386512130729703
 40
0.4932989373007647
 40
0.5995422155508161
 40
0.7057355672963813
 40
0.8123874938946359
 40
0.9198118722139634
 40
1.0
 40
1.0
 40
1.0
 40
1.0
 10
-9.468823417324412
 20
-196.764642573417
 30
0.0
 10
-9.47345423740759
 20
-196.6087565590543
 30
0.0
 10
-9.486200657092398
 20
-196.1796773622021
 30
0.0
 10
-9.189862543251246
 20
-195.5151655067323
 30
0.0
 10
-8.642729301172345
 20
-194.8824412607347
 30
0.0
 10
-7.897775974631394
 20
-194.4660597371191
 30
0.0
 10
-7.058847445187248
 20
-194.3109683133131
 30
0.0
 10
-6.21730888035219
 20
-194.4307903926604
 30
0.0
 10
-5.462768760577978
 20
-194.8096107439247
 30
0.0
 10
-4.88802256523822
 20
-195.4064300765125
 30
0.0
 10
-4.545433528122182
 20
-196.0914198332176
 30
0.0
 10
-4.535553360059122
 20
-196.563990056783
 30
0.0
 10
-4.531330442324932
 20
-196.7659729749892
 30
0.0
  0
SPLINE
  5
21B
330
1C1
100
AcDbEntity
 67
     1
  8
0
  6
Continuous
 62
     7
370
    15
100
AcDbSpline
210
0.0
220
0.0
230
1.0
 70
     8
 71
     3
 72
    17
 73
    13
 74
     0
 42
0.000000001
 43
0.00000001
 40
0.0
 40
0.0
 40
0.0
 40
0.0
 40
0.0338091100572778
 40
0.145693246698779
 40
0.2636724631008667
 40
0.3834690627507281
 40
0.4990569382767538
 40
0.6062346618452997
 40
0.7055116425980439
 40
0.8011679545711419
 40
0.8983365822203674
 40
1.0
 40
1.0
 40
1.0
 40
1.0
 10
0.5390170628331659
 20
-169.6264205057875
 30
0.0
 10
0.527215403434934
 20
-169.4904055881173
 30
0.0
 10
0.4763586352074176
 20
-168.9042779165735
 30
0.0
 10
0.824088276546812
 20
-167.8734812775826
 30
0.0
 10
1.582679757560778
 20
-166.7067444590531
 30
0.0
 10
2.735084210510542
 20
-165.8681887746192
 30
0.0
 10
4.070426899124744
 20
-165.5034272886207
 30
0.0
 10
5.380835140003637
 20
-165.6414676769608
 30
0.0
 10
6.498159617629491
 20
-166.198468459791
 30
0.0
 10
7.336933329857882
 20
-167.0639532398427
 30
0.0
 10
7.891994291741842
 20
-168.15500898887
 30
0.0
 10
7.959523298803034
 20
-168.9577773631734
 30
0.0
 10
7.994051081496707
 20
-169.3682352269502
 30
0.0
  0
SPLINE
  5
21C
330
1C1
100
AcDbEntity
 67
     1
  8
0
  6
Continuous
 62
     7
370
    15
100
AcDbSpline
210
0.0
220
0.0
230
1.0
 70
     8
 71
     3
 72
    17
 73
    13
 74
     0
 42
0.000000001
 43
0.00000001
 40
0.0
 40
0.0
 40
0.0
 40
0.0
 40
0.1080325713418766
 40
0.2189859779540188
 40
0.3212203051883856
 40
0.4177597613794941
 40
0.5136992441588891
 40
0.6137051403008426
 40
0.7207893246444208
 40
0.8354322252536556
 40
0.9548617158035798
 40
1.0
 40
1.0
 40
1.0
 40
1.0
 10
-21.98440291029426
 20
-169.3716462854767
 30
0.0
 10
-21.95264450203215
 20
-168.9342504600085
 30
0.0
 10
-21.8882690455827
 20
-168.0476331055993
 30
0.0
 10
-21.22086983680314
 20
-166.8756618989328
 30
0.0
 10
-20.26007058621908
 20
-166.0302922218013
 30
0.0
 10
-19.12971827830357
 20
-165.5876746014062
 30
0.0
 10
-17.94261173279157
 20
-165.5372533223179
 30
0.0
 10
-16.77331740332264
 20
-165.8753094305402
 30
0.0
 10
-15.70692972183193
 20
-166.6056347511011
 30
0.0
 10
-14.91150541063435
 20
-167.7024781582384
 30
0.0
 10
-14.49296956596718
 20
-168.7803123465964
 30
0.0
 10
-14.54840807668911
 20
-169.4436945865427
 30
0.0
 10
-14.563613965304
 20
-169.6256496267911
 30
0.0
  0
SPLINE
  5
21D
330
1C1
100
AcDbEntity
 67
     1
  8
0
  6
Continuous
 62
     7
370
    15
100
AcDbSpline
210
0.0
220
0.0
230
1.0
 70
     8
 71
     3
 72
    18
 73
    14
 74
     0
 42
0.000000001
 43
0.00000001
 40
0.0
 40
0.0
 40
0.0
 40
0.0
 40
0.006749186228159
 40
0.1096362628132398
 40
0.2139778570843312
 40
0.3210555764258799
 40
0.431095267994206
 40
0.5430726322827755
 40
0.6549936493603163
 40
0.7647653074310159
 40
0.8712932300926196
 40
0.9750468321230032
 40
1.0
 40
1.0
 40
1.0
 40
1.0
 10
4.31030201508845
 20
-185.7524082225694
 30
0.0
 10
4.307325637457553
 20
-185.7331989927759
 30
0.0
 10
4.258976264786353
 20
-185.4211572006408
 30
0.0
 10
4.441971811309486
 20
-184.7911258928037
 30
0.0
 10
4.866714148147162
 20
-183.9799691151243
 30
0.0
 10
5.569135165026964
 20
-183.3351020845445
 30
0.0
 10
6.442785264992635
 20
-182.9400986611956
 30
0.0
 10
7.404633607323352
 20
-182.8542098241952
 30
0.0
 10
8.328238467923457
 20
-183.0997593969421
 30
0.0
 10
9.10193299959082
 20
-183.6452102938647
 30
0.0
 10
9.60187661313211
 20
-184.4109110907165
 30
0.0
 10
9.824241860377066
 20
-185.0791075056988
 30
0.0
 10
9.782534897671322
 20
-185.4510954582153
 30
0.0
 10
9.774448913983091
 20
-185.5232150354065
 30
0.0
  0
SPLINE
  5
21E
330
1C1
100
AcDbEntity
 67
     1
  8
0
  6
Continuous
 62
     7
370
    15
100
AcDbSpline
210
0.0
220
0.0
230
1.0
 70
     8
 71
     3
 72
    18
 73
    14
 74
     0
 42
0.000000001
 43
0.00000001
 40
0.0
 40
0.0
 40
0.0
 40
0.0
 40
0.0058576749324357
 40
0.1102672030717511
 40
0.2130403659277324
 40
0.3162208390898365
 40
0.421600597806029
 40
0.5300639528844193
 40
0.641219523567904
 40
0.7534586600339732
 40
0.8646038665179576
 40
0.9729730978553568
 40
1.0
 40
1.0
 40
1.0
 40
1.0
 10
-23.6998726162918
 20
-185.1525923286105
 30
0.0
 10
-23.70257276262413
 20
-185.1357894039697
 30
0.0
 10
-23.75340139128391
 20
-184.8194844664416
 30
0.0
 10
-23.56766321989174
 20
-184.1998693544235
 30
0.0
 10
-23.14139320255081
 20
-183.4246858797694
 30
0.0
 10
-22.45155478172202
 20
-182.8468029910212
 30
0.0
 10
-21.60476309099559
 20
-182.5250488710963
 30
0.0
 10
-20.66874940724439
 20
-182.5014099750932
 30
0.0
 10
-19.75099837954238
 20
-182.7952516751897
 30
0.0
 10
-18.9574336705564
 20
-183.3858235360889
 30
0.0
 10
-18.42755214515989
 20
-184.1995551084816
 30
0.0
 10
-18.1849893806065
 20
-184.9109298716262
 30
0.0
 10
-18.22869087718855
 20
-185.3002891403564
 30
0.0
 10
-18.23741428783052
 20
-185.3780105241541
 30
0.0
  0
SPLINE
  5
21F
330
1C1
100
AcDbEntity
 67
     1
  8
0
  6
Continuous
 62
     7
370
    15
100
AcDbSpline
210
0.0
220
0.0
230
1.0
 70
     8
 71
     3
 72
    17
 73
    13
 74
     0
 42
0.000000001
 43
0.00000001
 40
0.0
 40
0.0
 40
0.0
 40
0.0
 40
0.0469220111064418
 40
0.1537539627296799
 40
0.2600206940469411
 40
0.3662086483328948
 40
0.4728312616663696
 40
0.5802171464875266
 40
0.6883723947009377
 40
0.7969682065790868
 40
0.9054721800960173
 40
1.0
 40
1.0
 40
1.0
 40
1.0
 10
-2.973559118195278
 20
-193.1164822637456
 30
0.0
 10
-2.981720025370792
 20
-192.9969828403226
 30
0.0
 10
-3.008461671521853
 20
-192.605407341704
 30
0.0
 10
-2.753364070930756
 20
-191.9582355684389
 30
0.0
 10
-2.249657904211328
 20
-191.2902030237831
 30
0.0
 10
-1.537476708896642
 20
-190.8210755077134
 30
0.0
 10
-0.7144338335323538
 20
-190.6018023987494
 30
0.0
 10
0.1353715227853146
 20
-190.6579216624152
 30
0.0
 10
0.9182648508641658
 20
-190.9867600421737
 30
0.0
 10
1.534444071111274
 20
-191.5547287567155
 30
0.0
 10
1.928070487055412
 20
-192.2650521159218
 30
0.0
 10
1.960568704915701
 20
-192.7840759422528
 30
0.0
 10
1.975699269608737
 20
-193.025723764767
 30
0.0
  0
SPLINE
  5
220
330
1C1
100
AcDbEntity
 67
     1
  8
0
  6
Continuous
 62
     7
370
    15
100
AcDbSpline
210
0.0
220
0.0
230
1.0
 70
     8
 71
     3
 72
    17
 73
    13
 74
     0
 42
0.000000001
 43
0.00000001
 40
0.0
 40
0.0
 40
0.0
 40
0.0
 40
0.0538935117449646
 40
0.1606406460671806
 40
0.2681934318804735
 40
0.3764787905820273
 40
0.4851010220063918
 40
0.5935116798831621
 40
0.7012564531539949
 40
0.8081809300178496
 40
0.9144926761189899
 40
1.0
 40
1.0
 40
1.0
 40
1.0
 10
-15.96429766576017
 20
-193.0242349367213
 30
0.0
 10
-15.97077745410378
 20
-192.8863681352721
 30
0.0
 10
-15.99009178995226
 20
-192.4754279063107
 30
0.0
 10
-15.71859538118869
 20
-191.8269878870971
 30
0.0
 10
-15.19748340863529
 20
-191.1867034933721
 30
0.0
 10
-14.46709103145187
 20
-190.7568255381775
 30
0.0
 10
-13.62736535978277
 20
-190.589313792561
 30
0.0
 10
-12.77198691086331
 20
-190.705682453522
 30
0.0
 10
-11.99979684717397
 20
-191.0914056535958
 30
0.0
 10
-11.40891240476028
 20
-191.699096524197
 30
0.0
 10
-11.04916502187169
 20
-192.4083840597725
 30
0.0
 10
-11.02964217967986
 20
-192.9003442064717
 30
0.0
 10
-11.0209394683669
 20
-193.1196456325723
 30
0.0
  0
SPLINE
  5
221
330
1C1
100
AcDbEntity
 67
     1
  8
0
  6
Continuous
 62
     7
370
    15
100
AcDbSpline
210
0.0
220
0.0
230
1.0
 70
     8
 71
     3
 72
    17
 73
    13
 74
     0
 42
0.000000001
 43
0.00000001
 40
0.0
 40
0.0
 40
0.0
 40
0.0
 40
0.1106437714181728
 40
0.2301246388406434
 40
0.3445355850720653
 40
0.4502893288145622
 40
0.5486275683844749
 40
0.6441424268830828
 40
0.7418893792433623
 40
0.8456880516337877
 40
0.9572052783191876
 40
0.9999999999999999
 40
0.9999999999999999
 40
0.9999999999999999
 40
0.9999999999999999
 10
-10.73897393680655
 20
-166.5338918718537
 30
0.0
 10
-10.70444672148881
 20
-166.0912308540104
 30
0.0
 10
-10.63263460903705
 20
-165.1705535709211
 30
0.0
 10
-9.93683902397407
 20
-163.9334783778088
 30
0.0
 10
-8.892196225647984
 20
-163.0138057792488
 30
0.0
 10
-7.651722738147929
 20
-162.5562097481001
 30
0.0
 10
-6.408514366028307
 20
-162.5545914412671
 30
0.0
 10
-5.271731907157549
 20
-162.9484471756479
 30
0.0
 10
-4.300359311404538
 20
-163.6890887623229
 30
0.0
 10
-3.601016347388569
 20
-164.7385315351895
 30
0.0
 10
-3.241325756448888
 20
-165.7435705093932
 30
0.0
 10
-3.294487655233256
 20
-166.3580725036149
 30
0.0
 10
-3.309230834141872
 20
-166.5284899087054
 30
0.0
  0
SPLINE
  5
222
330
1C1
100
AcDbEntity
 67
     1
  8
0
  6
Continuous
 62
     7
370
    15
100
AcDbSpline
210
0.0
220
0.0
230
1.0
 70
     8
 71
     3
 72
    18
 73
    14
 74
     0
 42
0.000000001
 43
0.00000001
 40
0.0
 40
0.0
 40
0.0
 40
0.0
 40
0.0282469400389833
 40
0.1347521930216811
 40
0.2442722348548106
 40
0.3560183078223103
 40
0.4681314456671
 40
0.5784496845278346
 40
0.6856171088959515
 40
0.7898039323051639
 40
0.8925268565386192
 40
0.9958403651760976
 40
1.0
 40
1.0
 40
1.0
 40
1.0
 10
0.6653532245881489
 20
-179.2706879204791
 30
0.0
 10
0.6568450858212803
 20
-179.1886898096092
 30
0.0
 10
0.6162569599646025
 20
-178.7975173410833
 30
0.0
 10
0.8484661031683861
 20
-178.0949103854898
 30
0.0
 10
1.35586105773005
 20
-177.2847954575734
 30
0.0
 10
2.132415238508954
 20
-176.6811982753788
 30
0.0
 10
3.058272973152943
 20
-176.3708138068551
 30
0.0
 10
4.022389623010849
 20
-176.3967052951743
 30
0.0
 10
4.895270139507642
 20
-176.7460510625279
 30
0.0
 10
5.591501989000863
 20
-177.3620692700783
 30
0.0
 10
6.006331191807663
 20
-178.1624024785467
 30
0.0
 10
6.180755964862823
 20
-178.7822647418518
 30
0.0
 10
6.132541939475921
 20
-179.0912778159582
 30
0.0
 10
6.130675866403703
 20
-179.1032378415301
 30
0.0
  0
SPLINE
  5
223
330
1C1
100
AcDbEntity
 67
     1
  8
0
  6
Continuous
 62
     7
370
    15
100
AcDbSpline
210
0.0
220
0.0
230
1.0
 70
     8
 71
     3
 72
    18
 73
    14
 74
     0
 42
0.000000001
 43
0.00000001
 40
0.0
 40
0.0
 40
0.0
 40
0.0
 40
0.0010661555241
 40
0.1104026408469893
 40
0.2164646477242389
 40
0.3199418861987946
 40
0.4226363448006522
 40
0.5265807678933908
 40
0.6332432837890728
 40
0.7429867112356485
 40
0.8548586430832847
 40
0.9668930589731999
 40
0.9999999999999999
 40
0.9999999999999999
 40
0.9999999999999999
 40
0.9999999999999999
 10
-19.86636282069979
 20
-178.8339141703932
 30
0.0
 10
-19.8668849733002
 20
-178.8308577442935
 30
0.0
 10
-19.92095497031946
 20
-178.5143584106248
 30
0.0
 10
-19.7332669497431
 20
-177.8725212860712
 30
0.0
 10
-19.29734379804777
 20
-177.0558145752606
 30
0.0
 10
-18.59319274269769
 20
-176.4558282226111
 30
0.0
 10
-17.74924408467966
 20
-176.1275260875365
 30
0.0
 10
-16.83428026580612
 20
-176.0957699565194
 30
0.0
 10
-15.94073171674372
 20
-176.3701918982775
 30
0.0
 10
-15.15636706378055
 20
-176.9366315868392
 30
0.0
 10
-14.61167187133675
 20
-177.7425360242483
 30
0.0
 10
-14.34950519669107
 20
-178.4780641309061
 30
0.0
 10
-14.39267847760913
 20
-178.8998086753934
 30
0.0
 10
-14.40252636173845
 20
-178.9960091799176
 30
0.0
  0
SPLINE
  5
224
330
1C1
100
AcDbEntity
 67
     1
  8
0
  6
Continuous
 62
     7
370
    15
100
AcDbSpline
210
0.0
220
0.0
230
1.0
 70
     8
 71
     3
 72
    18
 73
    14
 74
     0
 42
0.000000001
 43
0.00000001
 40
0.0
 40
0.0
 40
0.0
 40
0.0
 40
0.0056916475655415
 40
0.112856362752397
 40
0.2193062903639127
 40
0.3254668637742449
 40
0.4318838289034885
 40
0.5389871669122083
 40
0.646909783167393
 40
0.755427954825687
 40
0.8640527749832543
 40
0.9722452528971485
 40
1.0
 40
1.0
 40
1.0
 40
1.0
 10
-15.99200403068949
 20
-185.6364823411952
 30
0.0
 10
-15.99436187776953
 20
-185.6218372821833
 30
0.0
 10
-16.04111425347719
 20
-185.3314489414868
 30
0.0
 10
-15.86828732514997
 20
-184.7562404246101
 30
0.0
 10
-15.4671836246813
 20
-184.031347699808
 30
0.0
 10
-14.81724951563388
 20
-183.4903115595153
 30
0.0
 10
-14.02956725703841
 20
-183.193891163675
 30
0.0
 10
-13.17775244765091
 20
-183.1742629907351
 30
0.0
 10
-12.36018991414668
 20
-183.4370083957482
 30
0.0
 10
-11.66208474303871
 20
-183.9567109663878
 30
0.0
 10
-11.19478513102005
 20
-184.6738864756451
 30
0.0
 10
-10.97855155278174
 20
-185.3054108079471
 30
0.0
 10
-11.0183166431818
 20
-185.6572630057736
 30
0.0
 10
-11.02643501431766
 20
-185.7290965335785
 30
0.0
  0
SPLINE
  5
225
330
1C1
100
AcDbEntity
 67
     1
  8
0
  6
Continuous
 62
     7
370
    15
100
AcDbSpline
210
0.0
220
0.0
230
1.0
 70
     8
 71
     3
 72
    18
 73
    14
 74
     0
 42
0.000000001
 43
0.00000001
 40
0.0
 40
0.0
 40
0.0
 40
0.0
 40
0.0004528080711039
 40
0.1069034529415964
 40
0.2140442014009417
 40
0.321990946529247
 40
0.4305130102787875
 40
0.5391201253654907
 40
0.6472734573515999
 40
0.7546331864329886
 40
0.8612172245191221
 40
0.9673882355722961
 40
1.0
 40
1.0
 40
1.0
 40
1.0
 10
-3.008169770736866
 20
-185.7317188739498
 30
0.0
 10
-3.008365822793243
 20
-185.7305606322024
 30
0.0
 10
-3.054651750806702
 20
-185.4571113497396
 30
0.0
 10
-2.891342784399376
 20
-184.8889274407385
 30
0.0
 10
-2.50683522542515
 20
-184.1418694000289
 30
0.0
 10
-1.861318376716315
 20
-183.5607436757785
 30
0.0
 10
-1.068457499418842
 20
-183.2195239681467
 30
0.0
 10
-0.2068726168265988
 20
-183.1590967300746
 30
0.0
 10
0.6172400150592731
 20
-183.3875150334512
 30
0.0
 10
1.315853810465492
 20
-183.8761257246098
 30
0.0
 10
1.78559056854637
 20
-184.5652101126288
 30
0.0
 10
2.00589606718927
 20
-185.1904501007321
 30
0.0
 10
1.970041502236692
 20
-185.5512995917901
 30
0.0
 10
1.961616244694179
 20
-185.6360935336568
 30
0.0
  0
SPLINE
  5
226
330
1C1
100
AcDbEntity
 67
     1
  8
0
  6
Continuous
 62
     7
370
    15
100
AcDbSpline
210
0.0
220
0.0
230
1.0
 70
     8
 71
     3
 72
    18
 73
    14
 74
     0
 42
0.000000001
 43
0.00000001
 40
0.0
 40
0.0
 40
0.0
 40
0.0
 40
0.0075685836641238
 40
0.1180638018724047
 40
0.2301880480080137
 40
0.3418495855016455
 40
0.4510606378163507
 40
0.5569957038687295
 40
0.6603953682928251
 40
0.763084872704774
 40
0.8670889881560279
 40
0.9738444659532882
 40
1.0
 40
1.0
 40
1.0
 40
1.0
 10
-5.802714178944406
 20
-175.4380001598094
 30
0.0
 10
-5.80600016648284
 20
-175.4162289051875
 30
0.0
 10
-5.857258922269846
 20
-175.0766148893731
 30
0.0
 10
-5.658557029648304
 20
-174.4021964099865
 30
0.0
 10
-5.191547457237437
 20
-173.5496266112419
 30
0.0
 10
-4.433877268154759
 20
-172.9117462895904
 30
0.0
 10
-3.529583365988974
 20
-172.5747631868232
 30
0.0
 10
-2.585197128197469
 20
-172.5678654090233
 30
0.0
 10
-1.713854617142261
 20
-172.8734787338171
 30
0.0
 10
-0.9903651009745221
 20
-173.4469586594665
 30
0.0
 10
-0.5104917261239692
 20
-174.2288185587085
 30
0.0
 10
-0.2883408342099942
 20
-174.9126957985874
 30
0.0
 10
-0.3327410363288099
 20
-175.297210844881
 30
0.0
 10
-0.3414785440950044
 20
-175.3728794914834
 30
0.0
  0
SPLINE
  5
227
330
1C1
100
AcDbEntity
 67
     1
  8
0
  6
Continuous
 62
     7
370
    15
100
AcDbSpline
210
0.0
220
0.0
230
1.0
 70
     8
 71
     3
 72
    17
 73
    13
 74
     0
 42
0.000000001
 43
0.00000001
 40
0.0
 40
0.0
 40
0.0
 40
0.0
 40
0.1090895199159303
 40
0.2198978981603168
 40
0.3277161086299921
 40
0.4323938689326475
 40
0.5352320295389622
 40
0.6382508424554516
 40
0.7433064252063487
 40
0.8514065133404294
 40
0.9623066468216926
 40
1.0
 40
1.0
 40
1.0
 40
1.0
 10
-13.31331529662101
 20
-175.2795002495861
 30
0.0
 10
-13.28470534296962
 20
-174.9608070167414
 30
0.0
 10
-13.22703464573628
 20
-174.3183990923647
 30
0.0
 10
-12.73891174765232
 20
-173.4660827082135
 30
0.0
 10
-12.02324519461199
 20
-172.8319737069997
 30
0.0
 10
-11.15176238386436
 20
-172.4889668931177
 30
0.0
 10
-10.23297547705105
 20
-172.4574821042452
 30
0.0
 10
-9.356590148223079
 20
-172.7295383623571
 30
0.0
 10
-8.598605356598185
 20
-173.2800485622318
 30
0.0
 10
-8.066823110805814
 20
-174.062750163256
 30
0.0
 10
-7.804541721184318
 20
-174.7930747874113
 30
0.0
 10
-7.844711619233103
 20
-175.2248409298051
 30
0.0
 10
-7.854901420874666
 20
-175.3343660110287
 30
0.0
  0
SPLINE
  5
228
330
1C1
100
AcDbEntity
 67
     1
  8
0
  6
Continuous
 62
     7
370
    15
100
AcDbSpline
210
0.0
220
0.0
230
1.0
 70
     8
 71
     3
 72
    17
 73
    13
 74
     0
 42
0.000000001
 43
0.00000001
 40
0.0
 40
0.0
 40
0.0
 40
0.0
 40
0.1013755729928271
 40
0.2099660251471729
 40
0.3180822297425251
 40
0.4253976798739518
 40
0.5319468319404108
 40
0.638104302516124
 40
0.7444107645795253
 40
0.8513367647386452
 40
0.9590840633998499
 40
1.0
 40
1.0
 40
1.0
 40
1.0
 10
-9.495135959976029
 20
-181.9930241979619
 30
0.0
 10
-9.47437020090712
 20
-181.72655260269
 30
0.0
 10
-9.431360787868622
 20
-181.1746446822503
 30
0.0
 10
-9.018125449879886
 20
-180.4250340734805
 30
0.0
 10
-8.389646885216818
 20
-179.8380967900786
 30
0.0
 10
-7.600062344519221
 20
-179.4981418959304
 30
0.0
 10
-6.748807522425413
 20
-179.4402700269605
 30
0.0
 10
-5.930150546347987
 20
-179.6669924902047
 30
0.0
 10
-5.226930033363477
 20
-180.1517714147902
 30
0.0
 10
-4.737860936182062
 20
-180.8422335089706
 30
0.0
 10
-4.49720890069398
 20
-181.494280235807
 30
0.0
 10
-4.528934413150735
 20
-181.883245749967
 30
0.0
 10
-4.537666088161075
 20
-181.9902990391614
 30
0.0
  0
LWPOLYLINE
  5
22B
330
1C1
100
AcDbEntity
 67
     1
  8
0
  6
Continuous
 62
     7
370
    15
100
AcDbPolyline
 90
        3
 70
   128
 43
0.0
 10
-7.003948753
 20
-196.3153296711
 10
-5.6059569182
 20
-196.1414052953
 10
-4.7300300057
 20
-195.8421873791
  0
LWPOLYLINE
  5
22E
330
1C1
100
AcDbEntity
 67
     1
  8
0
  6
Continuous
 62
     7
370
    15
100
AcDbPolyline
 90
        3
 70
   128
 43
0.0
 10
-9.2841628841
 20
-195.839440618
 10
-8.4019405877
 20
-196.1414052953
 10
-7.003948753
 20
-196.3153296711
  0
SPLINE
  5
22F
330
1C1
100
AcDbEntity
 67
     1
  8
0
  6
Continuous
 62
     7
370
    15
100
AcDbSpline
210
0.0
220
0.0
230
1.0
 70
     8
 71
     3
 72
    13
 73
     9
 74
     0
 42
0.000000001
 43
0.00000001
 40
0.0
 40
0.0
 40
0.0
 40
0.0
 40
0.1989750574880759
 40
0.3977862019757603
 40
0.5967627639334682
 40
0.7962332545081671
 40
0.9965237544752209
 40
1.0
 40
1.0
 40
1.0
 40
1.0
 10
30.43719467857964
 20
-9.121187409518672
 30
0.0
 10
30.43829404162605
 20
-9.110832436164811
 30
0.0
 10
30.44049186207826
 20
-9.090131019746122
 30
0.0
 10
30.4429343838355
 20
-9.067401517003054
 30
0.0
 10
30.44473103900093
 20
-9.050812129200475
 30
0.0
 10
30.44580889359467
 20
-9.040961547199355
 30
0.0
 10
30.44605404160747
 20
-9.038751027913461
 30
0.0
 10
30.44605118650069
 20
-9.03878085130666
 30
0.0
 10
30.44605113779278
 20
-9.038781360091535
 30
0.0
  0
SPLINE
  5
230
330
1C1
100
AcDbEntity
 67
     1
  8
0
  6
Continuous
 62
     7
370
    15
100
AcDbSpline
210
0.0
220
0.0
230
1.0
 70
     8
 71
     3
 72
    25
 73
    21
 74
     0
 42
0.000000001
 43
0.00000001
 40
0.0
 40
0.0
 40
0.0
 40
0.0
 40
0.0179534759014325
 40
0.0359788474136572
 40
0.0541142793734619
 40
0.072397247392747
 40
0.1457059160929366
 40
0.2178202522209704
 40
0.2891596914335774
 40
0.3607078579920968
 40
0.4316996688959339
 40
0.5016584743879876
 40
0.5715072615105302
 40
0.6425608868100028
 40
0.7139951607369085
 40
0.7853363518775296
 40
0.8573438877400075
 40
0.930800205701519
 40
0.9656258994649102
 40
1.0
 40
1.0
 40
1.0
 40
1.0
 10
30.43784494461848
 20
-16.48109413821164
 30
0.0
 10
30.43647308926521
 20
-16.46817660901365
 30
0.0
 10
30.43372388489385
 20
-16.4422898217125
 30
0.0
 10
30.42851055046989
 20
-16.39254285068251
 30
0.0
 10
30.42251838649236
 20
-16.33474335687995
 30
0.0
 10
30.40887476360238
 20
-16.20166111513144
 30
0.0
 10
30.38300651497289
 20
-15.94303660913191
 30
0.0
 10
30.34233143619226
 20
-15.47432113636008
 30
0.0
 10
30.30153873867956
 20
-14.90249534533134
 30
0.0
 10
30.26719282238992
 20
-14.24507701044289
 30
0.0
 10
30.2435571298475
 20
-13.53449235355658
 30
0.0
 10
30.23538406829705
 20
-12.79655711686817
 30
0.0
 10
30.24354153888128
 20
-12.05835704773808
 30
0.0
 10
30.26723052402532
 20
-11.34848950670467
 30
0.0
 10
30.30161970786234
 20
-10.69157929260431
 30
0.0
 10
30.34238191861024
 20
-10.12075654776778
 30
0.0
 10
30.38311941584868
 20
-9.652131223005567
 30
0.0
 10
30.41147988624447
 20
-9.36912850438798
 30
0.0
 10
30.42855747124361
 20
-9.203170346993334
 30
0.0
 10
30.43432816251604
 20
-9.148395903893103
 30
0.0
 10
30.43719467857964
 20
-9.121187409518672
 30
0.0
  0
SPLINE
  5
231
330
1C1
100
AcDbEntity
 67
     1
  8
0
  6
Continuous
 62
     7
370
    15
100
AcDbSpline
210
0.0
220
0.0
230
1.0
 70
     8
 71
     3
 72
    11
 73
     7
 74
     0
 42
0.000000001
 43
0.00000001
 40
0.0
 40
0.0
 40
0.0
 40
0.0
 40
0.2513414312914202
 40
0.5013965848130766
 40
0.7507522108552492
 40
0.9999999999999999
 40
0.9999999999999999
 40
0.9999999999999999
 40
0.9999999999999999
 10
30.44605124640991
 20
-16.55697979926277
 30
0.0
 10
30.44595081365568
 20
-16.55607892397174
 30
0.0
 10
30.44575046212702
 20
-16.55428178375509
 30
0.0
 10
30.44411523546094
 20
-16.53938274394895
 30
0.0
 10
30.44161068521688
 20
-16.51632183070068
 30
0.0
 10
30.43910001048347
 20
-16.49283500914786
 30
0.0
 10
30.43784494461849
 20
-16.48109413821164
 30
0.0
  0
SPLINE
  5
232
330
1C1
100
AcDbEntity
 67
     1
  8
0
  6
Continuous
 62
     7
370
    15
100
AcDbSpline
210
0.0
220
0.0
230
1.0
 70
     8
 71
     3
 72
    18
 73
    14
 74
     0
 42
0.000000001
 43
0.00000001
 40
0.0
 40
0.0
 40
0.0
 40
0.0
 40
0.1275984130041661
 40
0.2535838075233318
 40
0.3771878367203846
 40
0.4389704584447642
 40
0.4998154926458386
 40
0.5606576293161116
 40
0.6225265685205121
 40
0.7462779001212055
 40
0.8722256344876809
 40
0.9999949490450256
 40
1.0
 40
1.0
 40
1.0
 40
1.0
 10
-44.55394875296862
 20
-9.038780167519967
 30
0.0
 10
-44.5475725986436
 20
-9.09669848134373
 30
0.0
 10
-44.53490089330631
 20
-9.211802942276776
 30
0.0
 10
-44.4500316781327
 20
-10.06449402799658
 30
0.0
 10
-44.3829494256135
 20
-11.11131334063636
 30
0.0
 10
-44.35147840980719
 20
-12.05768494967005
 30
0.0
 10
-44.34325877936388
 20
-12.79549071025507
 30
0.0
 10
-44.35150810962156
 20
-13.53430444125534
 30
0.0
 10
-44.38261573039762
 20
-14.47907372797688
 30
0.0
 10
-44.4519218402874
 20
-15.54858656315053
 30
0.0
 10
-44.5272578486289
 20
-16.31420587513258
 30
0.0
 10
-44.56409957404366
 20
-16.65360409131522
 30
0.0
 10
-44.55394795037305
 20
-16.55697216664795
 30
0.0
 10
-44.55394754907664
 20
-16.55696834676201
 30
0.0
  0
LWPOLYLINE
  5
251
330
1C1
100
AcDbEntity
 67
     1
  8
0
  6
Continuous
 62
     7
370
    15
100
AcDbPolyline
 90
        3
 70
   128
 43
0.0
 10
-5.047121822
 20
-168.5021600702
 10
-7.003948753
 20
-168.4371265394
 10
-8.960775684
 20
-168.5021600702
  0
SPLINE
  5
256
330
1C1
100
AcDbEntity
 67
     1
  8
0
  6
Continuous
 62
     7
370
    15
100
AcDbSpline
210
0.0
220
0.0
230
1.0
 70
     8
 71
     3
 72
    12
 73
     8
 74
     0
 42
0.000000001
 43
0.00000001
 40
0.0
 40
0.0
 40
0.0
 40
0.0
 40
0.1162150338386903
 40
0.3785566724773739
 40
0.6573549712373797
 40
0.9894053079754314
 40
1.0
 40
1.0
 40
1.0
 40
1.0
 10
-12.99393688475486
 20
-157.5895977073851
 30
0.0
 10
-13.00873953013573
 20
-157.5776209018585
 30
0.0
 10
-13.05695738968586
 20
-157.5386078800722
 30
0.0
 10
-12.66702456328676
 20
-157.8583113442101
 30
0.0
 10
-11.83698970651253
 20
-158.4545284021581
 30
0.0
 10
-11.11157815777977
 20
-159.0720860406831
 30
0.0
 10
-10.53707375883175
 20
-159.3464742197043
 30
0.0
 10
-10.5193099021793
 20
-159.3549583884734
 30
0.0
  0
SPLINE
  5
257
330
1C1
100
AcDbEntity
 67
     1
  8
0
  6
Continuous
 62
     7
370
    15
100
AcDbSpline
210
0.0
220
0.0
230
1.0
 70
     8
 71
     3
 72
    11
 73
     7
 74
     0
 42
0.000000001
 43
0.00000001
 40
0.0
 40
0.0
 40
0.0
 40
0.0
 40
0.2056060698988721
 40
0.617249640946201
 40
0.8940865418314901
 40
1.0
 40
1.0
 40
1.0
 40
1.0
 10
-3.606972294612092
 20
-159.3293167060503
 30
0.0
 10
-3.295988301484353
 20
-159.1468412936446
 30
0.0
 10
-2.36238377223808
 20
-158.5990321611402
 30
0.0
 10
-1.497020280799741
 20
-157.8854990433246
 30
0.0
 10
-1.084809475058769
 20
-157.5670373902269
 30
0.0
 10
-1.060637535077809
 20
-157.5471819775375
 30
0.0
 10
-1.053948752968358
 20
-157.5416876510881
 30
0.0
  0
LWPOLYLINE
  5
25C
330
1C1
100
AcDbEntity
 67
     1
  8
0
  6
Continuous
 62
     7
370
    15
100
AcDbPolyline
 90
       51
 70
   128
 43
0.0
 10
60.87939643
 20
-200.8887189491
 10
61.758971304
 20
-204.0147179878
 10
62.8111956209
 20
-208.8340433376
 10
63.5156044003
 20
-213.7144590659
 10
63.8686883132
 20
-218.631651187
 10
63.8686883132
 20
-223.5611224972
 10
63.5156044003
 20
-228.4783146183
 10
62.8111956209
 20
-233.3587303466
 10
61.758971304
 20
-238.1780556964
 10
60.3641735782
 20
-242.9122810311
 10
58.6337512558
 20
-247.5378206784
 10
56.5763252135
 20
-252.0316304324
 10
54.2021454446
 20
-256.3713223588
 10
51.5230399931
 20
-260.5352763309
 10
48.5523560277
 20
-264.5027477395
 10
45.3048933464
 20
-268.2539708414
 10
41.796830645
 20
-271.7702572319
 10
38.0456449154
 20
-275.0340889492
 10
34.0700243762
 20
-278.0292057477
 10
29.889775369
 20
-280.7406861062
 10
25.525723684
 20
-283.1550215659
 10
20.9996108072
 20
-285.2601840292
 10
16.3339856053
 20
-287.0456856823
 10
11.5520919883
 20
-288.502631246
 10
6.6777531098
 20
-289.6237622908
 10
1.7352526808
 20
-290.403493398
 10
-3.2507860101
 20
-290.8379399867
 10
-8.255522769
 20
-290.9249376657
 10
-13.2540242492
 20
-290.664053017
 10
-18.2213881676
 20
-290.0565857547
 10
-23.1328673671
 20
-289.1055622503
 10
-27.9639931053
 20
-287.815720455
 10
-32.690696957
 20
-286.1934862956
 10
-37.2894307211
 20
-284.2469416613
 10
-41.7372837375
 20
-281.9857841395
 10
-46.0120970262
 20
-279.4212787031
 10
-50.0925736823
 20
-276.5662015893
 10
-53.9583849764
 20
-273.4347766487
 10
-57.5902716312
 20
-270.0426044828
 10
-60.9701397699
 20
-266.4065847226
 10
-64.0811510596
 20
-262.5448318358
 10
-66.9078065985
 20
-258.4765848809
 10
-69.4360241308
 20
-254.2221116597
 10
-71.653208204
 20
-249.8026077437
 10
-73.5483129186
 20
-245.2400908791
 10
-75.1118969582
 20
-240.5572912955
 10
-76.3361706258
 20
-235.7775384649
 10
-77.2150346515
 20
-230.9246448753
 10
-77.744110579
 20
-226.0227873986
 10
-77.9207625787
 20
-221.0963868421
 10
-77.9207625787
 20
-221.0963868421
  0
LWPOLYLINE
  5
25F
330
1C1
100
AcDbEntity
 67
     1
  8
0
  6
Continuous
 62
     8
370
    15
100
AcDbPolyline
 90
        3
 70
   128
 43
0.0
 10
-7.003948753
 20
-167.9563856007
 10
-3.8153698489
 20
-168.1296317992
 10
-3.7342537083
 20
-168.1385872124
  0
LWPOLYLINE
  5
264
330
1C1
100
AcDbEntity
 67
     1
  8
0
  6
Continuous
 62
     8
370
    15
100
AcDbPolyline
 90
        3
 70
   128
 43
0.0
 10
-10.3066498493
 20
-168.1422963774
 10
-10.192527657
 20
-168.1296317992
 10
-7.003948753
 20
-167.9563856007
  0
LWPOLYLINE
  5
270
330
1C1
100
AcDbEntity
 67
     1
  8
0
  6
Continuous
 62
     8
370
    15
100
AcDbPolyline
 90
       55
 70
   128
 43
0.0
 10
3.996051247
 20
-160.1117979596
 10
7.3676248579
 20
-161.0008172976
 10
11.2956332548
 20
-162.3675863394
 10
15.0917927439
 20
-164.0574891467
 10
18.7287519093
 20
-166.0583499311
 10
22.1803063767
 20
-168.3557524449
 10
25.4215876172
 20
-170.9331438501
 10
28.4292421251
 20
-173.7719539828
 10
31.1815996807
 20
-176.8517291508
 10
33.6588294849
 20
-180.1502795036
 10
35.8430830401
 20
-183.6438389101
 10
37.7186227494
 20
-187.3072361949
 10
39.2719353062
 20
-191.1140764965
 10
40.4918290579
 20
-195.0369314434
 10
41.3695146422
 20
-199.0475367758
 10
41.8986683142
 20
-203.1169959903
 10
42.0754775096
 20
-207.21598854
 10
41.8986683142
 20
-211.3149810897
 10
41.3695146422
 20
-215.3844403042
 10
40.4918290579
 20
-219.3950456366
 10
39.2719353062
 20
-223.3179005835
 10
37.7186227494
 20
-227.1247408851
 10
35.8430830401
 20
-230.7881381699
 10
33.6588294849
 20
-234.2816975764
 10
31.1815996807
 20
-237.5802479291
 10
28.4292421251
 20
-240.6600230972
 10
25.4215876172
 20
-243.4988332299
 10
22.1803063767
 20
-246.0762246351
 10
18.7287519093
 20
-248.3736271489
 10
15.0917927439
 20
-250.3744879333
 10
11.2956332548
 20
-252.0643907406
 10
7.3676248579
 20
-253.4311597824
 10
3.3360689438
 20
-254.4649474563
 10
-0.7699870347
 20
-255.1583052986
 10
-4.9209588502
 20
-255.50623765
 10
-9.0869386557
 20
-255.50623765
 10
-13.2379104713
 20
-255.1583052986
 10
-17.3439664498
 20
-254.4649474563
 10
-21.3755223638
 20
-253.4311597824
 10
-25.3035307607
 20
-252.0643907406
 10
-29.0996902499
 20
-250.3744879333
 10
-32.7366494152
 20
-248.3736271489
 10
-36.1882038827
 20
-246.0762246351
 10
-39.4294851231
 20
-243.4988332299
 10
-42.437139631
 20
-240.6600230972
 10
-45.1894971867
 20
-237.5802479291
 10
-47.6667269909
 20
-234.2816975764
 10
-49.850980546
 20
-230.7881381699
 10
-51.7265202553
 20
-227.1247408851
 10
-53.2798328121
 20
-223.3179005834
 10
-54.4997265639
 20
-219.3950456366
 10
-55.3774121481
 20
-215.3844403042
 10
-55.9065658201
 20
-211.3149810897
 10
-56.0833750155
 20
-207.21598854
 10
-56.0833750155
 20
-207.21598854
  0
LWPOLYLINE
  5
272
330
1C1
100
AcDbEntity
 67
     1
  8
0
  6
Continuous
 62
     8
370
    15
100
AcDbPolyline
 90
       51
 70
   128
 43
0.0
 10
59.9917940175
 20
-197.9969481247
 10
60.1607886395
 20
-198.5550162733
 10
61.3965653223
 20
-203.3231848232
 10
62.2837886642
 20
-208.1660245873
 10
62.8179375783
 20
-213.0588575645
 10
62.9962901644
 20
-217.9767509993
 10
62.8179375783
 20
-222.8946444341
 10
62.2837886642
 20
-227.7874774112
 10
61.3965653223
 20
-232.6303171754
 10
60.1607886395
 20
-237.3984857252
 10
58.5827558505
 20
-242.0676855667
 10
56.6705082487
 20
-246.6141235278
 10
54.4337902095
 20
-251.0146320028
 10
51.8839995353
 20
-255.2467870091
 10
49.0341293749
 20
-259.289022455
 10
45.8987020135
 20
-263.1207400352
 10
42.4936948702
 20
-266.7224141952
 10
38.8364590808
 20
-270.075691629
 10
34.9456310806
 20
-273.1634848035
 10
30.8410376374
 20
-275.9700590325
 10
26.5435948183
 20
-278.481112657
 10
22.075201407
 20
-280.6838499233
 10
17.458627312
 20
-282.5670461873
 10
12.7173975367
 20
-284.1211051124
 10
7.8756723013
 20
-285.3381075706
 10
2.9581239276
 20
-286.2118519964
 10
-2.0101888849
 20
-286.7378859883
 10
-7.003948753
 20
-286.9135289978
 10
-11.9977086211
 20
-286.7378859883
 10
-16.9660214336
 20
-286.2118519964
 10
-21.8835698072
 20
-285.3381075706
 10
-26.7252950427
 20
-284.1211051124
 10
-31.4665248179
 20
-282.5670461873
 10
-36.0830989129
 20
-280.6838499233
 10
-40.5514923243
 20
-278.481112657
 10
-44.8489351433
 20
-275.9700590325
 10
-48.9535285866
 20
-273.1634848035
 10
-52.8443565867
 20
-270.075691629
 10
-56.5015923761
 20
-266.7224141952
 10
-59.9065995194
 20
-263.1207400352
 10
-63.0420268808
 20
-259.289022455
 10
-65.8918970412
 20
-255.2467870091
 10
-68.4416877154
 20
-251.0146320028
 10
-70.6784057546
 20
-246.6141235278
 10
-72.5906533565
 20
-242.0676855667
 10
-74.1686861455
 20
-237.3984857252
 10
-75.4044628283
 20
-232.6303171754
 10
-76.2916861701
 20
-227.7874774112
 10
-76.8258350843
 20
-222.8946444341
 10
-77.0041876703
 20
-217.9767509993
 10
-77.0041876703
 20
-217.9767509993
  0
LINE
  5
273
330
1C1
100
AcDbEntity
 67
     1
  8
0
  6
Continuous
 62
     7
370
    15
100
AcDbLine
 10
22.9809659673
 20
-196.5009543376
 30
0.0
 11
22.9809659673
 21
-188.6867863426
 31
0.0
  0
LINE
  5
274
330
1C1
100
AcDbEntity
 67
     1
  8
0
  6
Continuous
 62
     7
370
    15
100
AcDbLine
 10
-36.9888634732
 20
-188.6867863426
 30
0.0
 11
-36.9888634732
 21
-196.5009543376
 31
0.0
  0
LINE
  5
275
330
1C1
100
AcDbEntity
 67
     1
  8
0
  6
Continuous
 62
     7
370
    15
100
AcDbLine
 10
-0.8777436101
 20
-192.6859930106
 30
0.0
 11
-1.2656328178
 21
-190.7953669517
 31
0.0
  0
LINE
  5
276
330
1C1
100
AcDbEntity
 67
     1
  8
0
  6
Continuous
 62
     7
370
    15
100
AcDbLine
 10
-12.7379194462
 20
-190.7741876373
 30
0.0
 11
-13.1301538958
 21
-192.6859930106
 31
0.0
  0
LINE
  5
277
330
1C1
100
AcDbEntity
 67
     1
  8
0
  6
Continuous
 62
     7
370
    15
100
AcDbLine
 10
-44.553948753
 20
-16.5569683468
 30
0.0
 11
-44.553948753
 21
-26.497879987
 31
0.0
  0
LINE
  5
278
330
1C1
100
AcDbEntity
 67
     1
  8
0
  6
Continuous
 62
     7
370
    15
100
AcDbLine
 10
-44.553948753
 20
1.202120013
 30
0.0
 11
-44.553948753
 21
-9.0387801675
 31
0.0
  0
LINE
  5
279
330
1C1
100
AcDbEntity
 67
     1
  8
0
  6
Continuous
 62
     7
370
    15
100
AcDbLine
 10
30.446051247
 20
-9.0325700931
 30
0.0
 11
30.446051247
 21
1.202120013
 31
0.0
  0
LINE
  5
27A
330
1C1
100
AcDbEntity
 67
     1
  8
0
  6
Continuous
 62
     7
370
    15
100
AcDbLine
 10
30.446051247
 20
-26.497879987
 30
0.0
 11
30.446051247
 21
-16.5628575194
 31
0.0
  0
LINE
  5
27B
330
1C1
100
AcDbEntity
 67
     1
  8
0
  6
Continuous
 62
     7
370
    15
100
AcDbLine
 10
11.746051247
 20
-203.107031154
 30
0.0
 11
11.746051247
 21
-196.909086288
 31
0.0
  0
LINE
  5
27C
330
1C1
100
AcDbEntity
 67
     1
  8
0
  6
Continuous
 62
     7
370
    15
100
AcDbLine
 10
-25.753948753
 20
-196.909086288
 30
0.0
 11
-25.753948753
 21
-203.1084246863
 31
0.0
  0
LINE
  5
27D
330
1C1
100
AcDbEntity
 67
     1
  8
0
  6
Continuous
 62
     7
370
    15
100
AcDbLine
 10
-13.503948753
 20
-156.0416876511
 30
0.0
 11
-18.003948753
 21
-156.0416876511
 31
0.0
  0
LINE
  5
27E
330
1C1
100
AcDbEntity
 67
     1
  8
0
  6
Continuous
 62
     7
370
    15
100
AcDbLine
 10
3.996051247
 20
-156.0416876511
 30
0.0
 11
-0.503948753
 21
-156.0416876511
 31
0.0
  0
LINE
  5
27F
330
1C1
100
AcDbEntity
 67
     1
  8
0
  6
Continuous
 62
     7
370
    15
100
AcDbLine
 10
-12.9939368848
 20
-157.5416876511
 30
0.0
 11
-13.503948753
 21
-157.5416876511
 31
0.0
  0
LINE
  5
280
330
1C1
100
AcDbEntity
 67
     1
  8
0
  6
Continuous
 62
     7
370
    15
100
AcDbLine
 10
-0.503948753
 20
-157.5416876511
 30
0.0
 11
-1.053948753
 21
-157.5416876511
 31
0.0
  0
LINE
  5
281
330
1C1
100
AcDbEntity
 67
     1
  8
0
  6
Continuous
 62
     7
370
    15
100
AcDbLine
 10
-13.053948753
 20
-26.797879987
 30
0.0
 11
-13.053948753
 21
-157.5895853649
 31
0.0
  0
LINE
  5
282
330
1C1
100
AcDbEntity
 67
     1
  8
0
  6
Continuous
 62
     7
370
    15
100
AcDbLine
 10
-1.053948753
 20
-157.5416876511
 30
0.0
 11
-1.053948753
 21
-26.797879987
 31
0.0
  0
LINE
  5
283
330
1C1
100
AcDbEntity
 67
     1
  8
0
  6
Continuous
 62
     7
370
    15
100
AcDbLine
 10
30.7534469281
 20
-9.032879987
 30
0.0
 11
30.4460204514
 21
-9.032879987
 31
0.0
  0
LINE
  5
284
330
1C1
100
AcDbEntity
 67
     1
  8
0
  6
Continuous
 62
     7
370
    15
100
AcDbLine
 10
30.4460534847
 20
-16.562879987
 30
0.0
 11
30.7534469281
 21
-16.562879987
 31
0.0
  0
LINE
  5
285
330
1C1
100
AcDbEntity
 67
     1
  8
0
  6
Continuous
 62
     7
370
    15
100
AcDbLine
 10
11.9150011063
 20
-203.1142877959
 30
0.0
 11
11.746051247
 21
-202.8184928827
 31
0.0
  0
LINE
  5
286
330
1C1
100
AcDbEntity
 67
     1
  8
0
  6
Continuous
 62
     7
370
    15
100
AcDbLine
 10
60.87939643
 20
-200.8887189491
 30
0.0
 11
60.0020280383
 21
-198.0302601156
 31
0.0
  0
LINE
  5
287
330
1C1
100
AcDbEntity
 67
     1
  8
0
  6
Continuous
 62
     7
370
    15
100
AcDbLine
 10
-74.0099255442
 20
-198.0302601156
 30
0.0
 11
-74.887293936
 21
-200.8887189491
 31
0.0
  0
LINE
  5
288
330
1C1
100
AcDbEntity
 67
     1
  8
0
  6
Continuous
 62
     7
370
    15
100
AcDbLine
 10
30.446051247
 20
1.202120013
 30
0.0
 11
-44.553948753
 21
1.202120013
 31
0.0
  0
LINE
  5
289
330
1C1
100
AcDbEntity
 67
     1
  8
0
  6
Continuous
 62
     7
370
    15
100
AcDbLine
 10
30.146051247
 20
-26.797879987
 30
0.0
 11
-44.253948753
 21
-26.797879987
 31
0.0
  0
LINE
  5
28A
330
1C1
100
AcDbEntity
 67
     1
  8
0
  6
Continuous
 62
     7
370
    15
100
AcDbLine
 10
-13.753948753
 20
-195.2779950993
 30
0.0
 11
-13.753948753
 21
-190.6625433356
 31
0.0
  0
LINE
  5
28B
330
1C1
100
AcDbEntity
 67
     1
  8
0
  6
Continuous
 62
     7
370
    15
100
AcDbLine
 10
-0.253948753
 20
-190.6780920673
 30
0.0
 11
-0.253948753
 21
-195.3091638764
 31
0.0
  0
LINE
  5
28C
330
1C1
100
AcDbEntity
 67
     1
  8
0
  6
Continuous
 62
     7
370
    15
100
AcDbLine
 10
-19.503948753
 20
-200.5203080535
 30
0.0
 11
-19.503948753
 21
-197.4070107129
 31
0.0
  0
LINE
  5
28D
330
1C1
100
AcDbEntity
 67
     1
  8
0
  6
Continuous
 62
     7
370
    15
100
AcDbLine
 10
-19.503948753
 20
-194.7524251542
 30
0.0
 11
-19.503948753
 21
-190.5629742842
 31
0.0
  0
LINE
  5
28E
330
1C1
100
AcDbEntity
 67
     1
  8
0
  6
Continuous
 62
     7
370
    15
100
AcDbLine
 10
-19.503948753
 20
-187.465037833
 30
0.0
 11
-19.503948753
 21
-183.0470397756
 31
0.0
  0
LINE
  5
28F
330
1C1
100
AcDbEntity
 67
     1
  8
0
  6
Continuous
 62
     7
370
    15
100
AcDbLine
 10
5.496051247
 20
-168.5021600702
 30
0.0
 11
0.7087456059
 21
-168.5021600702
 31
0.0
  0
LINE
  5
290
330
1C1
100
AcDbEntity
 67
     1
  8
0
  6
Continuous
 62
     7
370
    15
100
AcDbLine
 10
-3.9035701
 20
-168.5021600702
 30
0.0
 11
-10.0739527551
 21
-168.5021600702
 31
0.0
  0
LINE
  5
291
330
1C1
100
AcDbEntity
 67
     1
  8
0
  6
Continuous
 62
     7
370
    15
100
AcDbLine
 10
-14.7236566349
 20
-168.5021600702
 30
0.0
 11
-19.503948753
 21
-168.5021600702
 31
0.0
  0
LINE
  5
292
330
1C1
100
AcDbEntity
 67
     1
  8
0
  6
Continuous
 62
     7
370
    15
100
AcDbLine
 10
5.496051247
 20
-200.3941501906
 30
0.0
 11
5.496051247
 21
-198.046927759
 31
0.0
  0
LINE
  5
293
330
1C1
100
AcDbEntity
 67
     1
  8
0
  6
Continuous
 62
     7
370
    15
100
AcDbLine
 10
5.496051247
 20
-195.1522606458
 30
0.0
 11
5.496051247
 21
-190.8256614037
 31
0.0
  0
LINE
  5
294
330
1C1
100
AcDbEntity
 67
     1
  8
0
  6
Continuous
 62
     7
370
    15
100
AcDbLine
 10
5.496051247
 20
-187.7399805772
 30
0.0
 11
5.496051247
 21
-183.4685044506
 31
0.0
  0
LINE
  5
295
330
1C1
100
AcDbEntity
 67
     1
  8
0
  6
Continuous
 62
     7
370
    15
100
AcDbLine
 10
-25.753948753
 20
-196.909086288
 30
0.0
 11
-25.7518415192
 21
-196.6322574998
 31
0.0
  0
LINE
  5
296
330
1C1
100
AcDbEntity
 67
     1
  8
0
  6
Continuous
 62
     7
370
    15
100
AcDbLine
 10
11.7409662806
 20
-196.479073185
 30
0.0
 11
11.746051247
 21
-196.909086288
 31
0.0
  0
LINE
  5
297
330
1C1
100
AcDbEntity
 67
     1
  8
0
  6
Continuous
 62
     7
370
    15
100
AcDbLine
 10
6.496051247
 20
-172.3528182987
 30
0.0
 11
6.496051247
 21
-168.4387886076
 31
0.0
  0
LINE
  5
298
330
1C1
100
AcDbEntity
 67
     1
  8
0
  6
Continuous
 62
     7
370
    15
100
AcDbLine
 10
5.696051247
 20
-180.411225088
 30
0.0
 11
5.696051247
 21
-177.6650790975
 31
0.0
  0
LINE
  5
299
330
1C1
100
AcDbEntity
 67
     1
  8
0
  6
Continuous
 62
     7
370
    15
100
AcDbLine
 10
5.696051247
 20
-172.8247058543
 30
0.0
 11
5.696051247
 21
-168.293782257
 31
0.0
  0
LINE
  5
29A
330
1C1
100
AcDbEntity
 67
     1
  8
0
  6
Continuous
 62
     7
370
    15
100
AcDbLine
 10
6.2125185817
 20
-168.293782257
 30
0.0
 11
5.696051247
 21
-168.293782257
 31
0.0
  0
LINE
  5
29B
330
1C1
100
AcDbEntity
 67
     1
  8
0
  6
Continuous
 62
     7
370
    15
100
AcDbLine
 10
-19.703948753
 20
-168.293782257
 30
0.0
 11
-20.2204160876
 21
-168.293782257
 31
0.0
  0
LINE
  5
29C
330
1C1
100
AcDbEntity
 67
     1
  8
0
  6
Continuous
 62
     7
370
    15
100
AcDbLine
 10
-19.703948753
 20
-172.853055012
 30
0.0
 11
-19.703948753
 21
-168.293782257
 31
0.0
  0
LINE
  5
29D
330
1C1
100
AcDbEntity
 67
     1
  8
0
  6
Continuous
 62
     7
370
    15
100
AcDbLine
 10
-20.503948753
 20
-172.2905063975
 30
0.0
 11
-20.503948753
 21
-168.4387886076
 31
0.0
  0
LINE
  5
29E
330
1C1
100
AcDbEntity
 67
     1
  8
0
  6
Continuous
 62
     7
370
    15
100
AcDbLine
 10
-13.503948753
 20
-156.0416876511
 30
0.0
 11
-13.503948753
 21
-159.6568935428
 31
0.0
  0
LINE
  5
29F
330
1C1
100
AcDbEntity
 67
     1
  8
0
  6
Continuous
 62
     7
370
    15
100
AcDbLine
 10
-0.503948753
 20
-159.6568935428
 30
0.0
 11
-0.503948753
 21
-156.0416876511
 31
0.0
  0
LINE
  5
2A0
330
1C1
100
AcDbEntity
 67
     1
  8
0
  6
Continuous
 62
     7
370
    15
100
AcDbLine
 10
3.996051247
 20
-161.1373830104
 30
0.0
 11
3.996051247
 21
-156.0416876511
 31
0.0
  0
LINE
  5
2A1
330
1C1
100
AcDbEntity
 67
     1
  8
0
  6
Continuous
 62
     7
370
    15
100
AcDbLine
 10
-18.003948753
 20
-161.1014844548
 30
0.0
 11
-18.003948753
 21
-156.0416876511
 31
0.0
  0
LINE
  5
2A2
330
1C1
100
AcDbEntity
 67
     1
  8
0
  6
Continuous
 62
     7
370
    15
100
AcDbLine
 10
30.7534469281
 20
-9.032879987
 30
0.0
 11
30.7534469281
 21
-16.562879987
 31
0.0
  0
LINE
  5
2A3
330
1C1
100
AcDbEntity
 67
     1
  8
0
  6
Continuous
 62
     7
370
    15
100
AcDbLine
 10
-44.4881097484
 20
-15.9271183623
 30
0.0
 11
-44.4881097484
 21
-9.7065830925
 31
0.0
  0
LINE
  5
2A4
330
1C1
100
AcDbEntity
 67
     1
  8
0
  6
Continuous
 62
     8
370
    15
100
AcDbLine
 10
6.496051247
 20
-171.2415419472
 30
0.0
 11
7.1458622648
 21
-171.5888581113
 31
0.0
  0
LINE
  5
2A5
330
1C1
100
AcDbEntity
 67
     1
  8
0
  6
Continuous
 62
     8
370
    15
100
AcDbLine
 10
-21.1591747794
 20
-171.5918417865
 30
0.0
 11
-20.503948753
 21
-171.2415419472
 31
0.0
  0
LINE
  5
2A6
330
1C1
100
AcDbEntity
 67
     1
  8
0
  6
Continuous
 62
     8
370
    15
100
AcDbLine
 10
-44.553948753
 20
-26.497879987
 30
0.0
 11
30.446051247
 21
-26.497879987
 31
0.0
  0
LINE
  5
2A7
330
1C1
100
AcDbEntity
 67
     1
  8
0
  6
Continuous
 62
     8
370
    15
100
AcDbLine
 10
-19.503948753
 20
-179.9984837252
 30
0.0
 11
-19.503948753
 21
-177.5362600127
 31
0.0
  0
LINE
  5
2A8
330
1C1
100
AcDbEntity
 67
     1
  8
0
  6
Continuous
 62
     8
370
    15
100
AcDbLine
 10
-19.503948753
 20
-172.9143077947
 30
0.0
 11
-19.503948753
 21
-168.5021600702
 31
0.0
  0
LINE
  5
2A9
330
1C1
100
AcDbEntity
 67
     1
  8
0
  6
Continuous
 62
     8
370
    15
100
AcDbLine
 10
5.496051247
 20
-180.6927186227
 30
0.0
 11
5.496051247
 21
-177.3504415662
 31
0.0
  0
LINE
  5
2AA
330
1C1
100
AcDbEntity
 67
     1
  8
0
  6
Continuous
 62
     8
370
    15
100
AcDbLine
 10
5.496051247
 20
-172.9261892378
 30
0.0
 11
5.496051247
 21
-168.5021600702
 31
0.0
  0
ARC
  5
2AB
330
1C1
100
AcDbEntity
 67
     1
  8
0
  6
Continuous
 62
     7
370
    15
100
AcDbCircle
 10
30.146051247
 20
-26.497879987
 30
0.0
 40
0.3000000000000256
100
AcDbArc
 50
270.0
 51
360.0
  0
ARC
  5
2AC
330
1C1
100
AcDbEntity
 67
     1
  8
0
  6
Continuous
 62
     7
370
    15
100
AcDbCircle
 10
-44.253948753
 20
-26.497879987
 30
0.0
 40
0.3000000000000149
100
AcDbArc
 50
180.0
 51
270.0
  0
ARC
  5
2AD
330
1C1
100
AcDbEntity
 67
     1
  8
0
  6
Continuous
 62
     7
370
    15
100
AcDbCircle
 10
-6.2336274929
 20
-188.6879197893
 30
0.0
 40
29.2079018431088
100
AcDbArc
 50
318.6173638755
 51
39.7165088645
  0
ARC
  5
2AE
330
1C1
100
AcDbEntity
 67
     1
  8
0
  6
Continuous
 62
     7
370
    15
100
AcDbCircle
 10
-7.0895045146
 20
-194.3185125436
 30
0.0
 40
29.14974142643257
100
AcDbArc
 50
116.7734630017
 51
117.3994232873
  0
ARC
  5
2AF
330
1C1
100
AcDbEntity
 67
     1
  8
0
  6
Continuous
 62
     7
370
    15
100
AcDbCircle
 10
-6.9183929912
 20
-194.3185125434
 30
0.0
 40
29.14974142623042
100
AcDbArc
 50
62.6005767127
 51
63.2265369983
  0
ARC
  5
2B0
330
1C1
100
AcDbEntity
 67
     1
  8
0
  6
Continuous
 62
     7
370
    15
100
AcDbCircle
 10
-6.8183431428
 20
-193.9049935677
 30
0.0
 40
6.064378382474411
100
AcDbArc
 50
346.7564302085
 51
11.5960259262
  0
ARC
  5
2B1
330
1C1
100
AcDbEntity
 67
     1
  8
0
  6
Continuous
 62
     7
370
    15
100
AcDbCircle
 10
-7.1895755984
 20
-193.9049920329
 30
0.0
 40
6.064357272106928
100
AcDbArc
 50
168.40394795
 51
193.1395689836
  0
ARC
  5
2B2
330
1C1
100
AcDbEntity
 67
     1
  8
0
  6
Continuous
 62
     7
370
    15
100
AcDbCircle
 10
-6.8659027181
 20
-190.7744979741
 30
0.0
 40
5.483436000197506
100
AcDbArc
 50
321.5222961165
 51
359.2833342352
  0
ARC
  5
2B3
330
1C1
100
AcDbEntity
 67
     1
  8
0
  6
Continuous
 62
     7
370
    15
100
AcDbCircle
 10
-7.1418214236
 20
-190.7744175026
 30
0.0
 40
5.483626709080057
100
AcDbArc
 50
180.9275635679
 51
218.5205598614
  0
ARC
  5
2B4
330
1C1
100
AcDbEntity
 67
     1
  8
0
  6
Continuous
 62
     7
370
    15
100
AcDbCircle
 10
-14.5203992015
 20
-201.8991797013
 30
0.0
 40
5.010509741424254
100
AcDbArc
 50
211.5548196527
 51
270.1881131884
  0
ARC
  5
2B5
330
1C1
100
AcDbEntity
 67
     1
  8
0
  6
Continuous
 62
     7
370
    15
100
AcDbCircle
 10
0.512588012
 20
-201.8994620272
 30
0.0
 40
5.010227701241712
100
AcDbArc
 50
269.8108891216
 51
328.6783062982
  0
ARC
  5
2B6
330
1C1
100
AcDbEntity
 67
     1
  8
0
  6
Continuous
 62
     7
370
    15
100
AcDbCircle
 10
0.5132501328
 20
-202.0405499733
 30
0.0
 40
5.008060539193544
100
AcDbArc
 50
269.8032321106
 51
330.4623211884
  0
ARC
  5
2B7
330
1C1
100
AcDbEntity
 67
     1
  8
0
  6
Continuous
 62
     7
370
    15
100
AcDbCircle
 10
-14.5210890349
 20
-202.0403576962
 30
0.0
 40
5.008252614270631
100
AcDbArc
 50
209.695302685
 51
270.1960898949
  0
ARC
  5
2B8
330
1C1
100
AcDbEntity
 67
     1
  8
0
  6
Continuous
 62
     7
370
    15
100
AcDbCircle
 10
-19.5524410685
 20
-168.1881743194
 30
0.0
 40
0.3177082881736256
100
AcDbArc
 50
241.5183868198
 51
278.7794609471
  0
ARC
  5
2B9
330
1C1
100
AcDbEntity
 67
     1
  8
0
  6
Continuous
 62
     7
370
    15
100
AcDbCircle
 10
5.5445435626
 20
-168.1881743194
 30
0.0
 40
0.3177082881736248
100
AcDbArc
 50
261.2205390529
 51
298.4816131802
  0
ARC
  5
2BA
330
1C1
100
AcDbEntity
 67
     1
  8
0
  6
Continuous
 62
     7
370
    15
100
AcDbCircle
 10
-9.0452972137
 20
-221.1040907294
 30
0.0
 40
68.87546579580086
100
AcDbArc
 50
162.9320196956
 51
179.9935913286
  0
ARC
  5
2BB
330
1C1
100
AcDbEntity
 67
     1
  8
0
  6
Continuous
 62
     8
370
    15
100
AcDbCircle
 10
-6.9579266161
 20
-188.2610698385
 30
0.0
 40
30.03395416956469
100
AcDbArc
 50
180.8121666455
 51
318.9198359583
  0
ARC
  5
2BC
330
1C1
100
AcDbEntity
 67
     1
  8
0
  6
Continuous
 62
     8
370
    15
100
AcDbCircle
 10
-7.003948753
 20
-196.1381255997
 30
0.0
 40
29.98710982195979
100
AcDbArc
 50
180.6932666321
 51
359.3067333679
  0
ARC
  5
2BD
330
1C1
100
AcDbEntity
 67
     1
  8
0
  6
Continuous
 62
     8
370
    15
100
AcDbCircle
 10
-6.6811018677
 20
-196.7964761971
 30
0.0
 40
28.74636509993321
100
AcDbArc
 50
38.3991688609
 51
51.8897748735
  0
ARC
  5
2BE
330
1C1
100
AcDbEntity
 67
     1
  8
0
  6
Continuous
 62
     8
370
    15
100
AcDbCircle
 10
-7.3260250121
 20
-196.7971110422
 30
0.0
 40
28.74736159562799
100
AcDbArc
 50
127.9563991933
 51
141.6246580804
  0
ARC
  5
2BF
330
1C1
100
AcDbEntity
 67
     1
  8
0
  6
Continuous
 62
     8
370
    15
100
AcDbCircle
 10
-7.2085897628
 20
-196.7140650734
 30
0.0
 40
18.60126234883433
100
AcDbArc
 50
216.9652552076
 51
231.0958707155
  0
ARC
  5
2C0
330
1C1
100
AcDbEntity
 67
     1
  8
0
  6
Continuous
 62
     8
370
    15
100
AcDbCircle
 10
-7.5407667392
 20
-196.9067973769
 30
0.0
 40
18.21318215760012
100
AcDbArc
 50
180.0072005511
 51
198.9153826263
  0
ARC
  5
2C1
330
1C1
100
AcDbEntity
 67
     1
  8
0
  6
Continuous
 62
     8
370
    15
100
AcDbCircle
 10
-6.467182579
 20
-196.9067923798
 30
0.0
 40
18.2132339704607
100
AcDbArc
 50
341.0578708102
 51
359.9927837494
  0
ARC
  5
2C2
330
1C1
100
AcDbEntity
 67
     1
  8
0
  6
Continuous
 62
     8
370
    15
100
AcDbCircle
 10
-6.7973738518
 20
-196.7161959664
 30
0.0
 40
18.59838550288654
100
AcDbArc
 50
308.9828817693
 51
323.5383236226
  0
ARC
  5
2C3
330
1C1
100
AcDbEntity
 67
     1
  8
0
  6
Continuous
 62
     8
370
    15
100
AcDbCircle
 10
-7.5779187598
 20
-207.4842493317
 30
0.0
 40
48.50619806194962
100
AcDbArc
 50
102.412137621
 51
179.6831273086
  0
ARC
  5
2C4
330
1C1
100
AcDbEntity
 67
     1
  8
0
  6
Continuous
 62
     8
370
    15
100
AcDbCircle
 10
-9.0181242149
 20
-217.9844753524
 30
0.0
 40
67.9860638941566
100
AcDbArc
 50
162.9368382164
 51
179.9934902418
  0
VIEWPORT
  5
2C9
330
1C1
100
AcDbEntity
 67
     1
  8
0
100
AcDbViewport
 10
0.0
 20
0.0
 30
0.0
 40
205.6
 41
156.0
 68
     1
 69
     1
 12
-7.0067927147
 22
-66.947467909
 13
0.0
 23
0.0
 14
10.0
 24
10.0
 15
10.0
 25
10.0
 16
0.0
 26
0.0
 36
1.0
 17
0.0
 27
0.0
 37
0.0
 42
50.0
 43
0.0
 44
0.0
 45
209.8484491495
 50
0.0
 51
0.0
 72
   100
 90
   557152
  1

281
     0
 71
     1
 74
     0
110
0.0
120
0.0
130
0.0
111
1.0
121
0.0
131
0.0
112
0.0
122
1.0
132
0.0
 79
     0
146
0.0
  0
ENDSEC
  0
SECTION
  2
OBJECTS
  0
DICTIONARY
  5
C
330
0
100
AcDbDictionary
281
     1
  3
ACAD_GROUP
350
D
  3
ACAD_LAYOUT
350
1A
  3
ACAD_MLINESTYLE
350
17
  3
ACAD_PLOTSETTINGS
350
19
  3
ACAD_PLOTSTYLENAME
350
E
  3
ACAD_SCALELIST
350
47
  0
DICTIONARY
  5
D
102
{ACAD_REACTORS
330
C
102
}
330
C
100
AcDbDictionary
281
     1
  0
DICTIONARY
  5
1A
102
{ACAD_REACTORS
330
C
102
}
330
C
100
AcDbDictionary
281
     1
  3
_Left
350
1E
  3
_Right
350
26
  3
_Top
350
1C2
  3
Model
350
22
  0
DICTIONARY
  5
17
102
{ACAD_REACTORS
330
C
102
}
330
C
100
AcDbDictionary
281
     1
  3
Standard
350
18
  0
DICTIONARY
  5
19
102
{ACAD_REACTORS
330
C
102
}
330
C
100
AcDbDictionary
281
     1
  0
ACDBDICTIONARYWDFLT
  5
E
102
{ACAD_REACTORS
330
C
102
}
330
C
100
AcDbDictionary
281
     1
  3
Normal
350
F
100
AcDbDictionaryWithDefault
340
F
  0
DICTIONARY
  5
47
102
{ACAD_REACTORS
330
C
102
}
330
C
100
AcDbDictionary
281
     1
  3
A0
350
48
  3
A1
350
49
  3
A2
350
4A
  3
A3
350
4B
  3
A4
350
4C
  3
A5
350
4D
  3
A6
350
4E
  3
A7
350
4F
  3
A8
350
50
  3
A9
350
51
  3
B0
350
52
  3
B1
350
53
  3
B2
350
54
  3
B3
350
55
  3
B4
350
56
  3
B5
350
57
  3
B6
350
58
  3
B7
350
59
  3
B8
350
5A
  3
B9
350
5B
  3
C0
350
5C
  3
C1
350
5D
  3
C2
350
5E
  3
C3
350
5F
  3
C4
350
60
  3
C5
350
61
  3
C6
350
62
  3
C7
350
63
  3
C8
350
64
  3
C9
350
65
  3
D0
350
66
  3
D1
350
67
  3
D2
350
68
  0
LAYOUT
  5
1E
102
{ACAD_REACTORS
330
1A
102
}
330
1A
100
AcDbPlotSettings
  1

  2
none_device
  4
ISO_A4_(210.00_x_297.00_MM)
  6

 40
7.5
 41
20.0
 42
7.5
 43
20.0
 44
210.0
 45
297.0
 46
0.0
 47
0.0
 48
0.0
 49
0.0
140
0.0
141
0.0
142
1.0
143
1.136937232
 70
   688
 72
     1
 73
     1
 74
     1
  7

 75
     0
147
0.8795560317
148
1.202120013
149
169.8145473242
100
AcDbLayout
  1
_Left
 70
     1
 71
     1
 10
-23.9408646527
 20
-178.341576564
 11
313.729493246
 21
60.4152421522
 12
0.0
 22
0.0
 32
0.0
 14
1.0000000000E+20
 24
1.0000000000E+20
 34
1.0000000000E+20
 15
-1.0000000000E+20
 25
-1.0000000000E+20
 35
-1.0000000000E+20
146
0.0
 13
0.0
 23
0.0
 33
0.0
 16
1.0
 26
0.0
 36
0.0
 17
0.0
 27
1.0
 37
0.0
 76
     0
330
1B
331
2C5
  0
LAYOUT
  5
26
102
{ACAD_REACTORS
330
1A
102
}
330
1A
100
AcDbPlotSettings
  1

  2
none_device
  4
ISO_A4_(210.00_x_297.00_MM)
  6

 40
7.5
 41
20.0
 42
7.5
 43
20.0
 44
210.0
 45
297.0
 46
0.0
 47
0.0
 48
0.0
 49
0.0
140
0.0
141
0.0
142
1.0
143
1.136937232
 70
   688
 72
     1
 73
     1
 74
     1
  7

 75
     0
147
0.8795560317
148
1.202120013
149
169.8145473242
100
AcDbLayout
  1
_Right
 70
     1
 71
     2
 10
0.0
 20
0.0
 11
0.0
 21
0.0
 12
0.0
 22
0.0
 32
0.0
 14
0.0
 24
0.0
 34
0.0
 15
0.0
 25
0.0
 35
0.0
146
0.0
 13
0.0
 23
0.0
 33
0.0
 16
1.0
 26
0.0
 36
0.0
 17
0.0
 27
1.0
 37
0.0
 76
     0
330
23
331
2C7
  0
LAYOUT
  5
1C2
102
{ACAD_REACTORS
330
1A
102
}
330
1A
100
AcDbPlotSettings
  1

  2
none_device
  4
ANSI_A_(11.00_x_8.50_Inches)
  6

 40
6.35
 41
19.05
 42
6.35000508
 43
19.05000254
 44
279.4
 45
215.9
 46
140.6294968581
 47
158.4530841698
 48
0.0
 49
0.0
140
0.0
141
0.0
142
0.0409023752
143
1.0
 70
  1696
 72
     0
 73
     0
 74
     1
  7

 75
     0
147
0.034024554
148
1979.2589527737
149
4313.2846105748
100
AcDbLayout
  1
_Top
 70
     1
 71
     3
 10
0.0
 20
0.0
 11
0.0
 21
0.0
 12
0.0
 22
0.0
 32
0.0
 14
-77.9235808179
 24
-169.814354747
 34
0.0
 15
63.9099953884
 25
35.919418929
 35
0.0
146
0.0
 13
0.0
 23
0.0
 33
0.0
 16
1.0
 26
0.0
 36
0.0
 17
0.0
 27
1.0
 37
0.0
 76
     0
330
1C1
331
2C9
  0
LAYOUT
  5
22
102
{ACAD_REACTORS
330
1A
102
}
330
1A
100
AcDbPlotSettings
  1

  2
none_device
  4
Letter_(8.50_x_11.00_Inches)
  6

 40
6.35
 41
6.35
 42
6.35000508
 43
6.35000508
 44
215.9
 45
279.4
 46
0.0
 47
0.0
 48
0.0
 49
0.0
140
0.0
141
0.0
142
1.0
143
1.0
 70
  1712
 72
     1
 73
     0
 74
     0
  7

 75
     0
147
1.0
148
0.0
149
0.0
100
AcDbLayout
  1
Model
 70
     1
 71
     0
 10
0.0
 20
0.0
 11
420.0
 21
297.0
 12
0.0
 22
0.0
 32
0.0
 14
-77.9235808179
 24
-169.814354747
 34
0.0
 15
63.9099953884
 25
35.919418929
 35
0.0
146
0.0
 13
0.0
 23
0.0
 33
0.0
 16
1.0
 26
0.0
 36
0.0
 17
0.0
 27
1.0
 37
0.0
 76
     0
330
1F
331
29
  0
MLINESTYLE
  5
18
102
{ACAD_REACTORS
330
17
102
}
330
17
100
AcDbMlineStyle
  2
Standard
 70
     0
  3

 62
   256
 51
90.0
 52
90.0
 71
     2
 49
0.5
 62
   256
  6
BYLAYER
 49
-0.5
 62
   256
  6
BYLAYER
  0
ACDBPLACEHOLDER
  5
F
102
{ACAD_REACTORS
330
E
102
}
330
E
  0
SCALE
  5
48
102
{ACAD_REACTORS
330
47
102
}
330
47
100
AcDbScale
 70
     0
300
1:1
140
1.0
141
1.0
290
     1
  0
SCALE
  5
49
102
{ACAD_REACTORS
330
47
102
}
330
47
100
AcDbScale
 70
     0
300
1:2
140
1.0
141
2.0
290
     0
  0
SCALE
  5
4A
102
{ACAD_REACTORS
330
47
102
}
330
47
100
AcDbScale
 70
     0
300
1:4
140
1.0
141
4.0
290
     0
  0
SCALE
  5
4B
102
{ACAD_REACTORS
330
47
102
}
330
47
100
AcDbScale
 70
     0
300
1:5
140
1.0
141
5.0
290
     0
  0
SCALE
  5
4C
102
{ACAD_REACTORS
330
47
102
}
330
47
100
AcDbScale
 70
     0
300
1:8
140
1.0
141
8.0
290
     0
  0
SCALE
  5
4D
102
{ACAD_REACTORS
330
47
102
}
330
47
100
AcDbScale
 70
     0
300
1:10
140
1.0
141
10.0
290
     0
  0
SCALE
  5
4E
102
{ACAD_REACTORS
330
47
102
}
330
47
100
AcDbScale
 70
     0
300
1:16
140
1.0
141
16.0
290
     0
  0
SCALE
  5
4F
102
{ACAD_REACTORS
330
47
102
}
330
47
100
AcDbScale
 70
     0
300
1:20
140
1.0
141
20.0
290
     0
  0
SCALE
  5
50
102
{ACAD_REACTORS
330
47
102
}
330
47
100
AcDbScale
 70
     0
300
1:30
140
1.0
141
30.0
290
     0
  0
SCALE
  5
51
102
{ACAD_REACTORS
330
47
102
}
330
47
100
AcDbScale
 70
     0
300
1:40
140
1.0
141
40.0
290
     0
  0
SCALE
  5
52
102
{ACAD_REACTORS
330
47
102
}
330
47
100
AcDbScale
 70
     0
300
1:50
140
1.0
141
50.0
290
     0
  0
SCALE
  5
53
102
{ACAD_REACTORS
330
47
102
}
330
47
100
AcDbScale
 70
     0
300
1:100
140
1.0
141
100.0
290
     0
  0
SCALE
  5
54
102
{ACAD_REACTORS
330
47
102
}
330
47
100
AcDbScale
 70
     0
300
2:1
140
2.0
141
1.0
290
     0
  0
SCALE
  5
55
102
{ACAD_REACTORS
330
47
102
}
330
47
100
AcDbScale
 70
     0
300
4:1
140
4.0
141
1.0
290
     0
  0
SCALE
  5
56
102
{ACAD_REACTORS
330
47
102
}
330
47
100
AcDbScale
 70
     0
300
8:1
140
8.0
141
1.0
290
     0
  0
SCALE
  5
57
102
{ACAD_REACTORS
330
47
102
}
330
47
100
AcDbScale
 70
     0
300
10:1
140
10.0
141
1.0
290
     0
  0
SCALE
  5
58
102
{ACAD_REACTORS
330
47
102
}
330
47
100
AcDbScale
 70
     0
300
100:1
140
100.0
141
1.0
290
     0
  0
SCALE
  5
59
102
{ACAD_REACTORS
330
47
102
}
330
47
100
AcDbScale
 70
     0
300
1/128" = 1'-0"
140
0.0078125
141
12.0
290
     0
  0
SCALE
  5
5A
102
{ACAD_REACTORS
330
47
102
}
330
47
100
AcDbScale
 70
     0
300
1/64" = 1'-0"
140
0.015625
141
12.0
290
     0
  0
SCALE
  5
5B
102
{ACAD_REACTORS
330
47
102
}
330
47
100
AcDbScale
 70
     0
300
1/32" = 1'-0"
140
0.03125
141
12.0
290
     0
  0
SCALE
  5
5C
102
{ACAD_REACTORS
330
47
102
}
330
47
100
AcDbScale
 70
     0
300
1/16" = 1'-0"
140
0.0625
141
12.0
290
     0
  0
SCALE
  5
5D
102
{ACAD_REACTORS
330
47
102
}
330
47
100
AcDbScale
 70
     0
300
3/32" = 1'-0"
140
0.09375
141
12.0
290
     0
  0
SCALE
  5
5E
102
{ACAD_REACTORS
330
47
102
}
330
47
100
AcDbScale
 70
     0
300
1/8" = 1'-0"
140
0.125
141
12.0
290
     0
  0
SCALE
  5
5F
102
{ACAD_REACTORS
330
47
102
}
330
47
100
AcDbScale
 70
     0
300
3/16" = 1'-0"
140
0.1875
141
12.0
290
     0
  0
SCALE
  5
60
102
{ACAD_REACTORS
330
47
102
}
330
47
100
AcDbScale
 70
     0
300
1/4" = 1'-0"
140
0.25
141
12.0
290
     0
  0
SCALE
  5
61
102
{ACAD_REACTORS
330
47
102
}
330
47
100
AcDbScale
 70
     0
300
3/8" = 1'-0"
140
0.375
141
12.0
290
     0
  0
SCALE
  5
62
102
{ACAD_REACTORS
330
47
102
}
330
47
100
AcDbScale
 70
     0
300
1/2" = 1'-0"
140
0.5
141
12.0
290
     0
  0
SCALE
  5
63
102
{ACAD_REACTORS
330
47
102
}
330
47
100
AcDbScale
 70
     0
300
3/4" = 1'-0"
140
0.75
141
12.0
290
     0
  0
SCALE
  5
64
102
{ACAD_REACTORS
330
47
102
}
330
47
100
AcDbScale
 70
     0
300
1" = 1'-0"
140
1.0
141
12.0
290
     0
  0
SCALE
  5
65
102
{ACAD_REACTORS
330
47
102
}
330
47
100
AcDbScale
 70
     0
300
1-1/2" = 1'-0"
140
1.5
141
12.0
290
     0
  0
SCALE
  5
66
102
{ACAD_REACTORS
330
47
102
}
330
47
100
AcDbScale
 70
     0
300
3" = 1'-0"
140
3.0
141
12.0
290
     0
  0
SCALE
  5
67
102
{ACAD_REACTORS
330
47
102
}
330
47
100
AcDbScale
 70
     0
300
6" = 1'-0"
140
6.0
141
12.0
290
     0
  0
SCALE
  5
68
102
{ACAD_REACTORS
330
47
102
}
330
47
100
AcDbScale
 70
     0
300
1'-0" = 1'-0"
140
12.0
141
12.0
290
     0
  0
ENDSEC
  0
EOF
